Porcupine Tree - Black Dahlia tab

Song: Black Dahlia
Artist: Porcupine Tree
Tuning: Standard

Solo 

e-------------------------------------------------------|
B--------------------------------------9-9-9-9\7-7-7----|
G---12-11-9-----7-7\6-----------------------------------|
D----------------------7---7/9---9\6--------------------|
A-------------------------------------------------------|
E-------------------------------------------------------|


e-------------------------------------------------|
B---12-12-11-12-----------------------------------|
G---------------12-12-------------------------9---|
D---------------------12-10-9----5-7-9-7-7--------|
A-------------------------------------------------|
E-------------------------------------------------|


e--------------------------------------|
B--------------------------------------|
G---9/11/13-13---13\9---9/11--11-------|
D--------------------------------------|
A--------------------------------------|
E--------------------------------------|


It probably isn't perfect, but this is how I play it and it works for me.
Please rate and comment, a leave any corrections! Thanks! :)
Tap to rate this tab
 
# A B C D E F G H I J K L M N O P Q R S T U V W X Y Z