Porcupine Tree - London tab

Porcupine Tree - London

source: http://youtu.be/Iald7o5_BKA



CAPO 3RD FRET


Chords used:

Em9: 024000
Em6: 042000
C  : X32010 (sometimes switches to X30010)
A  : X02220




Intro:

|--------------------------------|
|------------------------------0-|
|----------0----------------0----|
|-------4----------------4-------|
|----2----------------2----------|
|-0----------------0-------------|



Verse:


Em9           Em6               C
     A light snow is falling in London

Em9           Em6               C
     All sign     of the living has gone

Em9             Em6               C
     The last train pulls into the station

Em9               Em6                 C
     And no one gets off, and no one gets on



Chorus:


C               Em9           Em6
     I search inside my head

C                 Em9      Em6
     Helps me remember the day

C
     That the taxi never came
               
               Em6      C      A
     So I walk on in the rain




Verse:


 Em9        Em6      C             Em9       Em6   C
|----------------------------------------------------------------|
|-----5-----------------3--------------5--------------3----------|
|--------4--2----4------------------------4--2-------------------|
|-2------------------5-----4-------2---------------5-----4-----2-|
|----------------------------------------------------------------|
|----------------------------------------------------------------|



Em9        Em6      C
     One light burns in a window

Em9       Em6             C
     It guides all the shadows below

Em9     Em6                 C      A
     Inside, the ghost of a party

Em9            Em6                 C           A
     No one is left, just the cigarette smoke



Chorus:


C               Em9           Em6
     I search inside my head

C                 Em9      Em6
     Helps me remember the day

C
     That the taxi never came
               
               Em6      C      A
     So I walk on in the rain



C               Em9           Em6
     I search inside my head

C                 Em9      Em6
     Helps me remember the day

C
     That the taxi never came
               
              Em6
     So I walk on in the rain
Tap to rate this tab
 
# A B C D E F G H I J K L M N O P Q R S T U V W X Y Z