Song name
# A B C D E F G H I J K L M N O P Q R S T U V W X Y Z

Porcupine Tree - Small Fish tab

BAND - PORCUPINE TREE
SONG - SMALL FISH
FROM - UP THE DOWNSTAIR


(The first thing that I saw as}
     F   
The fisherman smiled at me
     F#              A
Were fields of empty people  
F
Floating out to sea
    F#                  A
The rain lashed down in darkness
Em                  Bm  Bm/B
A lizard blinked an eye                                                     
    A                   G        A 
And time stopped in the silence
G                     F#
The small fish gave a cry
-----------------------------
-----------------------------
    F#                A
The next thing that I saw as,
F
Things were fading fast
     F#                   A
Were dreams of children's laughter,
F
Smouldering to dust
    F#                  A
The rain lashed down in darkness
Em                  Bm  Bm/B       
A lizard blinked an eye             
    A                   G        A                                       
And time stopped in the silence         (PLAY FILL IN PART)                                
G                     F#                                                    
The small fish gave a cry                                           
----------------------------        
----------------------------                                       

SOLO
01:04                                      h h                         
[----s-------------h-------------|---h-h--0-2-3-2-0-2-0-2--]
[--2-\-7-7--5--3--3-5--2-3-2--0--|--0-2-3------------------]
[--------------------------------|-------------------------]
[--------------------------------|-------VERY TRICKY-------]
[--------------------------------|-------------------------]
[--------------------------------|-------------------------]

01:19
[----s-------------h---------------|-----------]
[--2-\-7-7--5--3--3-5--2-3-2--0----|--2--0-----]
[----------------------------------|--------3--]
[----------------------------------|-----------]
[----------------------------------|-----------]
[----------------------------------|-----------]

01:34
[----s---------------------|---br----------br--------]
[--2-\-7-7--7-9-10--10-10--|--12--10-12---12--10-12--]
[--------------------------|-------------------------]
[--------------------------|-------------------------]
[--------------------------|-------------------------]
[--------------------------|-------------------------]

01:44
[-----s-----------|--------12-----------|----h--p--s---s--]
[--12-\-14-15-15--|--14-15----15-14-14--|--12-14-12\11-\--]
[-----------------|---------------------|-----------------]
[-----------------|---------------------|-----------------]
[-----------------|---------------------|-----------------]
[-----------------|---------------------|-----------------]

01:50                                                          
[----s--------------|---------------------]
[--2-\-7-7--7-9-10--|--10-10-10--10-1010--]
[-------------------|---------------------]
[-------------------|---------------------]
[-------------------|---------------------]
[-------------------|---------------------]

01:57               s
[-----------12-14-14\15-14-12----------|----S-------------|----h--p--s---s--]
[--12-14-15-------------------15-15-15-|--15\17-15-14-14--|--12-14-12\11-\--]
[--------------------------------------|------------------|-----------------]
[--------------------------------------|------------------|-----------------]
[--------------------------------------|------------------|-----------------]
[--------------------------------------|------------------|-----------------]

SOLO CHORDS
F# A D A G F# 4TIMES
---------------------------- 
----------------------------    
     F#               A       F
The last thing that I saw as, my life passed by
     F#              A        F
Were fields of empty people, laying down to die
     F#                 A
The rain lashed down in darkness
Em                  Bm  Bm/B
A lizard blinked an eye
    A                   G       A
And time stopped in the silence         (PLAY FILL IN PART)
G                    F#
To watch the burning sky.


FILL IN PARTS
[-3---2---|-3---2---|-3---2---|-3---2--]
[--3---3--|--3---3--|--3---3--|--3---3-]                                      
[---2-----|---2-----|---2-----|---2----]                                     
[---------|---------|---------|--------]                                        
[---------|---------|---------|--------]                                
[---------|---------|---------|--------]



 Bm/B   IS JUST Bm WITH THE WITH THE 2ND STRING LIFTED OFF 
I--2--I
I--2--I
I--4--I
I--4--I
I--2--I
I-----I   

Tap to rate this tab
 
# A B C D E F G H I J K L M N O P Q R S T U V W X Y Z