Song name
# A B C D E F G H I J K L M N O P Q R S T U V W X Y Z

Porcupine Tree - Lips Of Ashes tab

                                    Artist - Porcupine Tree
                                 ----------------------------
                                     Song - Lips Of Ashes
                                   ------------------------
                                      Album - In Absentina
                                    -----------------------  

                                       Check Us Out At   
                               www.rockmusicbackingtracks.com
                             ----------------------------------


Guitar Solo

02:59
[-------------------------]
[-------------------------]
[---h--7-6----------------]
[--7-9-----7--------s-----]
[------------7-9--10\9-7--]
[-------------------------]


[----------------------------|--------------|------------------]
[-------h------s-------------|----7-10---10-|---s-------10--s--]
[---h--7-9-8--9\11-9-9--9-9--|--9------9----|--9\7--7-7----7\6-]
[--7-9-----------------------|--------------|------------------]
[----------------------------|--------------|------------------]
[----------------------------|--------------|------------------]


[--------------------|-----------------------|-----s------h---------]
[--------------------|-----------------s-----|----10\12-12-13-12-10-]
[---s--------h-p-s---|----s-----7-6-9-7\6----|--9-------------------]
[--7\5-5---5--7-5\4--|--4-\--9------------7--|----------------------]
[--------------------|-----------------------|----------------------]
[--------------------|-----------------------|----------------------]


[----------|-----12-------h--------h----|----h-----------------]
[------h---|--12-----12-12-15-14-10-12--|--10-12-10---h--------]
[--7--7-9--|----------------------------|------------9-11-9-9--]
[----------|----------------------------|----------------------]
[----------|----------------------------|----------------------]
[----------|----------------------------|----------------------]


[------------|-----------------|------------------------|-----------------]
[------br----|-----------------|---h----s------h--------|-----------------]
[--7-9-9--7--|-----h-s-----p---|--7-9--9\11-7-7-9-------|-----------------]
[------------|--5-5-7\9--12-9--|------------------11-7--|----------br--s--]
[------------|-----------------|------------------------|--7-7-5-7-7--5\2-]
[------------|-----------------|------------------------|-----------------]

Tap to rate this tab
# A B C D E F G H I J K L M N O P Q R S T U V W X Y Z