Song name
# A B C D E F G H I J K L M N O P Q R S T U V W X Y Z

Porcupine Tree - Shes Moved On tab

-------------------------------------------------------------------------------
         SHESMOVEDON ("Lightbulb Sun" version) - Porcupine Tree
-------------------------------------------------------------------------------
Tabbed by: Neverlasting
Email: movezig [at] gmail [period] com

Tuning: Standard

-------------------------------------------------------------------------------

This is Shesmovedon from the album "Lightbulb Sun". There are a lot of
different versions of this song around because it was re-recorded for different
albums. Please note that this tab might only claims to be (mostly) accurate for
the version on "Lightbulb Sun".

The other tabs I found online were rather crappy. (Either this, or they were
tabs of some version of the song that I never heard.) So here is my attempt to
provide a better tab. Please rate it and, even more important, write comments!
You can also contact me personally at movezig [at] gmail [period] com.

This tab is for one guitar only. (In the recording there are at least two other
guitars in the background with some effects.) For the strummed parts of this
song, listen to the recording to get strumming patterns, effects or chord
transitions with bells and whistles.  For the tabulature parts, I mostly
neglected note durations or effects (e.g., vibrato) except where I deemed it
helpful. Again, the recording is your friend.

Here is a summary of the song's structure. How to play the different parts is
below.


-------------------------------------------------------------------------------


[Riff; guitar and drums only]
[Verse]
You move in waves
You never retrace
Your newest craze
Straight out of the face by the bed unread

[Riff; bass enters]
[Verse]
I'm left behind
Like all the others
Some fall for you
It doesn't make much difference if they do

[Chorus]
She changes every time you look
By summer it was all gone -- now she's moved on
She called you every other day
So savour it it's all gone -- now she's moved on

[Riff; distorted]
[Chorus; distorted]
So for a while
Everything seemed new
Did we connect?
Or was it all just biding time for you?

[Chorus; clean]
She changes every time you look (All gone away)
By summer it was all gone -- now she's moved on (She's moving on)
She called you every other day (All gone away)
So savour it it's all gone -- now she's moved on (She's moving on)

[Bridge; only clean guitar initially, bass enters in the second line]

[Chorus; only clean guitar, drums and bass entering at the very end]
She changes every time you look
By summer it was all gone -- now she's moved on
She called you every other day (All gone away)
So savour it it's all gone -- now she's moved on (She's moving on)

[Solo]


-------------------------------------------------------------------------------


Now to the different parts:

[Riff]
e|-----------------------------------------------------------------------------|
B|-----------------------------------------------------------------------------|
G|-----------------------4-4-----------------------4-2-----------0---0---------|
D|---4-4h5-2-2---4-4h5-2-------4-4h5-2-2---4-4h5-2-----5-4-0-0h1~~~1~~~1-------|
A|-----------------------------------------------------------------------------|
E|-0-----------0-------------0-----------0-------------------------------------|


[Chorus]
Chords:
Em C D C


[Bridge]
Chords:
A Asus2 C Em/C (2x)
Em G Em G D B7


[Solo]
Chords: As in chorus

3:19 (with distortion and wah-wah)
e|-----------------------------------------------------------------------------|
B|---------------------------------------------------8-7-------7-7-7-----------|
G|-------------------------------------------------7-------7-7-7-7-7-----------|
D|------7-7b9r7-----------------7-7b9r7-7----7-7h9-------9-----7-7-7-----------|
A|-7-10---------10-7-7-7-7----7-----------10-----------------------------------|
E|-------------------------10--------------------------------------------------|

3:29
e|-----------------7-7---------------------------------------------------------|
B|-7-7b8-10p8-10p8-8-8-10b12r--------------------------------------------------|
G|-----------------------------------------------------------------------------|
D|-----------------------------------------------------------------------------|
A|-----------------------------------------------------------------------------|
E|-----------------------------------------------------------------------------|

3:32
e|-----------------------------------------9~~~~-9~~~~\------------------------|
B|-8-8-8-8---------8-10-8-10-8-10b12-10b12 10b12 10b12\------------------------|
G|---------9---7-9-------------------------------------------------------------|
D|-----------9-----------------------------------------------------------------|
A|-----------------------------------------------------------------------------|
E|-----------------------------------------------------------------------------|

3:39
e|-------12-12-12---------14-14-14-14b15r14-12-12-14~~~~14b15------------------|
B|-12-15----------15-x-15----------------------------15------------------------|
G|-----------------------------------------------------------------------------|
D|-----------------------------------------------------------------------------|
A|-----------------------------------------------------------------------------|
E|-----------------------------------------------------------------------------|

3:46
e|-14-14b15r14-12-14-12----12----12---15-12---|-19-19-19-19-19\-|--------------|
B|----------------------15----15----15-----15-|-----------------|--------------|
G|--------------------------------------------|-----------------|--------------|
D|--------------------------------------------|-----------------|--------------|
A|--------------------------------------------|-----------------|--------------|
E|--------------------------------------------|-----------------|--------------|

3:52
e|-15-15-15-15-15-15-15-15-|-15-15-15-15-15-15-15-15-|-15-15-15-15-15-12-12-12|
B|-17-17-17-17-17-17-17-17-|-17-15-15-15-15-15-15-15-|-15-15-15-15-15-13-13-13|
G|-------------------------|-------------------------|------------------------|
D|-------------------------|-------------------------|------------------------|
A|-------------------------|-------------------------|------------------------|
E|-------------------------|-------------------------|------------------------|

3:57
e|-12-12-12-12-------------|-------------------------|-------------------------|
B|-13-12-12-12-15-15-12----|-13-13----12-12-12-------|-------------------------|
G|----------------------14-|-------12----------12----|-------------------------|
D|-------------------------|----------------------12-|-------------------------|
A|-------------------------|-------------------------|-------------------------|
E|-------------------------|-------------------------|-------------------------|

4:01
e|-----------------------------------------------------------------------------|
B|-----------------------------------------------------------------------------|
G|-9-7------------------------------------------------------7-9----------------|
D|-----9-7----7----(7)h9p7----7------------------5-9p7----9--------------------|
A|---------10---10---------10---10-7-5-7-----5-7-------10----------------------|
E|---------------------------------------5-7-----------------------------------|

4:09
e|--------------------------------------7-7-7-5-5------------------------------|
B|------------------7--7-8-7-7-8-7-5--5-5-5-5-5-5-8----------------------------|
G|-7-9p7---9b11-7-9------------------------------------------------------------|
D|-------9---------------------------------------------------------------------|
A|-----------------------------------------------------------------------------|
E|-----------------------------------------------------------------------------|

4:16                                                  ("All gone away...")
e|-----------------|--------------------|-------------------------|------------|
B|-----------------|--------------------|-------------10-10-10-10-|------------|
G|-4-4-4-4-4/7-7-7-|-7-7/9-9-9-12-12-12-|-12-11-11-11-------------|------------|
D|-----------------|--------------------|-------------------------|------------|
A|-----------------|--------------------|-------------------------|------------|
E|-----------------|--------------------|-------------------------|------------|
  (5)        (5)         (3)   (4)           (3)      (4) <-- helps to count...

4:22
e|-------------------------|---------------------------------------------------|
B|----------------10-10-10-|---------------------------------------------------|
G|-12-12-11-12-12----------|-12-12-11-11-9-9-9---------------------------------|
D|-------------------------|-------------------12-12-12-9-9-9-10-9-------------|
A|-------------------------|---------------------------------------12----------|
E|-------------------------|---------------------------------------------------|
   (2)   (1)(2)   (3)        (2)   (2)   (3)   (3)      (3)

4:27                     ("She's moving on...")    [w-bar] ("All gone away...")
e|----------------------|-12-12-12-12-12-12-12-12-|-------|------|-------------|
B|----------------------|-10-10-10-10-10-10-10-10-|-15b17~|~~~~~~|-------------|
G|----------------------|-------------------------|-------|------|-------------|
D|----9-9-9-------------|-------------------------|-------|------|-------------|
A|-12-------12-12-12-12-|-------------------------|-------|------|-------------|
E|----------------------|-------------------------|-------|------|-------------|

["All gone away" and "She's moving on" repeat until the end.]

4:39
  [Tremolo picking]
e|-----------------|----|------------------------------------------------------|
B|-5-3-5-7-8-10-12-|-12-|------------------------------------------------------|
G|-----------------|----|------------------------------------------------------|
D|-----------------|----|------------------------------------------------------|
A|-----------------|----|------------------------------------------------------|
E|-----------------|----|------------------------------------------------------|
   (Note duration ad libitum)

[4 bars freestyle]

   Em            C                  D        C        (Em)
e|-17b19-17-17-|-17b19r17p15------|--------|--------|--------------------------|
B|-------------|------------------|--------|--------|--------------------------|
G|-------------|------------------|--------|--------|--------------------------|
D|-------------|------------------|--------|--------|--------------------------|
A|-------------|------------------|--------|--------|--------------------------|
E|-------------|------------------|--------|--------|--------------------------|

************************************

| /   slide up
| \   slide down
| h   hammer-on
| p   pull-off
| ~   Hold note
| x   Mute note
| b   Bend
| r   Release

************************************


That's it. I couldn't make sense of the "4 bars freestyle" part near the end of
the solo, so if you can help out please do.
Tap to rate this tab
# A B C D E F G H I J K L M N O P Q R S T U V W X Y Z