Song name
# A B C D E F G H I J K L M N O P Q R S T U V W X Y Z

Porcupine Tree - Octane Twisted tab

                    Octane Twisted by Porcupine Tree

Tabbed by marcus101

Intro:

Rhythm Guitar Part 1

e--------------------------------------------------------|
B--------------------------------------------------------|
G-7-----7-----7---7-----7-----5--5-----5-----5---5-----3-|   x4
D---7-----7-----7---5-----5--------3-----3-----3---3-----|
A-5---5-----5-----6---6-----6-6--5---5-----5-----4---4-4-|
D--------------------------------------------------------|

Lead Guitar Part 1

e-----------------------------------------------------------------------------|
B-15---------------15-15/16\15--13-13----------------------14\13-13\11-11--10-|
G----------------14--------------------12-12\10-10----------------------------|
D-----------------------------------------------------------------------------|
A-----------------------------------------------------------------------------|
D-----------------------------------------------------------------------------|

----------------------------------------------------------------------------|
----------------------------------------------------------------------------|
---------------------------------10-12-13\12-10--12/14-------------12-------|
-------7-7/8-5-5--5-5/7-3-------------------------------12-12---------13-13-|
----------------------------------------------------------------------------|
----------------------------------------------------------------------------|

----------------------------------------------------------------------------|
-----------------------14\13------------------------------------------------|
----------------------------13----------------------------------------------|
-----13-12-10-----------------13\11---8-10-10h12-----------7-7-7/8-5--5-5/3-|
----------------------------------------------------------------------------|
----------------------------------------------------------------------------|

--------------------------------|
----------------6h8-9\8-6-5-----|
-------------6h8----------------|
3---------6h8-------------------|
--------------------------------|
--------------------------------|

Rhythm Guitar Part 2

e-----------------------------------------------------------------------------|
B-----------------------------------------------------------------------------|
G-6-----8-----9---9----11----12--6-----8-----9---9----11----12--6-----8-----9-|
D---7-----7-----7--10----10--------7-----7-----7--10----10--------7-----7-----|
A-7---7-----7----10--10----10----7---7-----7----10--10----10----7---7-----7---|
D-----------------------------------------------------------------------------|

Lead Guitar Part 2

e-----------------------------------------------------------------------------|
B-----------------------------------------------------------------------------|
G---------------------------------------------------------------6-----8-----9-|
D-----------------------------------------------------------------------------|
A-----------------------------------------------------------------------------|
D-----------------------------------------------------------------------------|

Rhythm Guitar Part 2

-----------------------------------------------|
-----------------------------------------------|
---9----11----12---11----12----11--14----------|
-7--10----10---------12----12----12------------|
--10--10----10--10-12--12----12----------------|
-----------------------------------------------|

Lead Guitar Part 2

-----------------------------------------------|
-----------------------------------------------|
-----------------------------------------------|
--10-----9-----7--2/4-----5-----4---7----------|
-----------------------------------------------|
-----------------------------------------------|

Verse:

e-------------------------|
B-------------------------|
G-7-----7--5--5-----5--3--|   x4
D-7-----5-----3-----3-----|
A-5-----6-----5-----4-----|
D-------------------------|

Bridge:

e-------------------------------------------------------------------------|
B-------------------------------------------------------------------------|
G-7-7-77-7-11-6--7-7-77-7-11-6--------------------------------------------| x2
D-------------------------------1p01p01p00-777-666-9-1p01p01p00-777-666-9-|
A-5-5-55-5--9-4--5-5-55-5--9-4--1p01p01p00-777-666-9-1p01p01p00-777-666-9-|
D-------------------------------1p01p01p00-777-666-9-1p01p01p00-777-666-9-|

Rhythm Guitar Part 3

e----------------------------------------------------------------------------|
B----------------------------------------------------------------------------|
G-7-7--7-7--7-7--7-7--7-7--7-7--5-5--5-5--5-5--5-5--3-3--3-3--5-5--5-5--3-3--|
D-7-7--7-7--7-7--7-7--5-5--5-5--5-5--5-5--3-3--3-3--3-3--3-3--3-3--3-3--3-3--|
A-5-5--5-5--5-5--5-5--6-6--6-6--6-6--6-6--5-5--5-5--5-5--5-5--4-4--4-4--4-4--|
D----------------------------------------------------------------------------|

------|
------|
3-3---|   x4
3-3---|
4-4---|
------|

Lead Guitar Part 3

e---------------------------------------------|
B---------------------------------------------|
G-------7--7/8\7p5-----5/7\5p3-----5/6\5p3----|   x2
D-0-------------------------------------------|
A---------------------------------------------|
D---------------------------------------------|

Play the bridge section again.

Play the rhythm guitar part 3 section again (the next lead part will be played over this).

Lead Guitar Part 4

e----------------------------------------------------------------------------|
B-15--13--15--13--15--13--15--13--16--13--16--13--16--13--16--13--15--13--15-|
G---14--14--14--14--14--14--14--14--12--12--12--12--12--12--12--12--14--14---|
D----------------------------------------------------------------------------|
A----------------------------------------------------------------------------|
D----------------------------------------------------------------------------|

-----------------------------------------------------------------------------|
--13--15--13--15--13--18--16--18--16--18--16--18--16--18--15--18--15--18--15-|
14--14--14--14--14--14--17--17--17--17--17--17--17--17--17--17--17--17--17---|
-----------------------------------------------------------------------------|
-----------------------------------------------------------------------------|
-----------------------------------------------------------------------------|

-----------------------------------------------------------------------------|
--18--15--20--18--20--18--20--18--20--18--20--18--20--18--20--18--20--18--21-|
17--17--17--19--19--19--19--19--19--19--19--19--19--19--19--19--19--19--19---|
-----------------------------------------------------------------------------|
-----------------------------------------------------------------------------|
-----------------------------------------------------------------------------|

------------------------------------------------------------------------------|
--18--21--18--21--18--21--18--------------------------------------------------|
20--20--20--20--20--20--20--20--7-5---7-5---7-5---7-5---8--7---8--7---8--7----|
---------------------------------7-7-7-7-7-7-7-7-7-7-7-7-10-8-8-10-8-8-10-8-8-|
------------------------------------------------------------------------------|
------------------------------------------------------------------------------|

                                As soon as this part above kicks in, the lead
                                guitar part 3 section is played over the top.

------------------------------------------------------------------------------|
------------------------------------------------------------------------------|
8--7---12--14-----12--14-----12--14-----12--14-----13--15-----13--15-----13---|
-10-8-8--15--15-15--15--15-15--15--15-15--15--15-15--15--15-15--15--15-15--15-|
------------------------------------------------------------------------------|
------------------------------------------------------------------------------|

-----------------------------------------------------------------------------|
--------------------15--13--15--13--15--13--15--13--16--13--16--13--16--13---|
15-----13--15---------14--14--14--14--14--14--14--14--12--12--12--12--12--12-|
--15-15--15--15-15-----------------------------------------------------------|
-----------------------------------------------------------------------------|
-----------------------------------------------------------------------------|

----------------------------------------------------------------------------|
16--13--15--13--15--13--15--13--15--13--18--16--18--16--18--16--18--16------|
--12--12--14--14--14--14--14--14--14--14--17--17--17--17--17--17--17--------|
----------------------------------------------------------------------------|
----------------------------------------------------------------------------|
----------------------------------------------------------------------------|

Ending Lead

e-----------------------------------------------------------------------------|
B-----7/13-----------11-----10------------7/13-----------11-------------------|
G-8-7------11-----------8-7-----------8-7------11-----------11-7\2-2----2h3p2-|
D-----------------------------------------------------------------------------|
A-----------------------------------------------------------------------------|
D-----------------------------------------------------------------------------|

-----------------------------------------------------------------------------|
----------------7/13------------11-----10--------------7/13------------11----|
p0-2-3-5-7--8-7------11------------8-7-------------8-7------11------------11-|
-----------------------------------------7-----------------------------------|
-----------------------------------------------------------------------------|
-----------------------------------------------------------------------------|

-----------------------------------------------------------------------------|
-----------------------------------------------------------------------------|
7\2-2------------------------------------------------------------------------|
-----------------------------------------------------------------------------|
-----------------------------------------------------------------------------|
-----------------------------------------------------------------------------|

Great song, enjoy!
Tap to rate this tab
 
# A B C D E F G H I J K L M N O P Q R S T U V W X Y Z