Song name
# A B C D E F G H I J K L M N O P Q R S T U V W X Y Z

Porcupine Tree - Radioactive Toy Live tab

-------------------------------------------------------------------------------
            RADIOACTIVE TOY (LIVE) - Porcupine Tree
-------------------------------------------------------------------------------

Album: Coma Divine

Tabbed by: Ben McCarthy
E-mail: redhotchiliben@hotmail.com

Tuning: Standard

Intro Solo (0:51):

E|--12b13--12--10--10----12b13--12--10--10--------------0--|
B|------------------------------------------13--13--10--6--|
G|------------------------------------------------------9--|
D|------------------------------------------------------7--|
A|---------------------------------------------------------|
E|---------------------------------------------------------|

Chorus 1 (2:08):

E|-----------------------------------------------------|
B|-----------------------------------------------------|
G|--2--2--2--------------------------------------------|
D|--2--2--2-----------2-----------2--3-----------4--5--|
A|--0--0--0--0--2--3-----2--------2--3-----------4--5--|
E|--------------------------3--0--0--1--1--0--1--2--3--|

E|----------------------------------------------------------|
B|----------------------------------------------------------|
G|--2--2--2-----------------------9--10--10--9--10--11--12--|
D|--2--2--2-----------2-----------9--10--10--9--10--11--12--|
A|--0--0--0--0--2--3-----2--------7--8---8---7--8---9---10--|
E|--------------------------3--0----------------------------|

Solo 1 (2:42):

E|------------------------------------------------------------------|
B|--12b13--12-------------------------------------------------------|
G|--12b13--12--10--12--12b14--12b14--10------10---------------------|
D|---------------------------------------12------12--12------12p10--|
A|------------------------------------------------------------------|
E|------------------------------------------------------------------|

(2:51)                                          (Use a slide)
E|--------------------------------------------------------|
B|--12p10--12p10--12--12-----12---------------------------|
G|--12p10--12p10--12--12b14--12--10------------------2/7--|
D|-----------------------------------12--12\0--------2-7--|
A|--------------------------------------------------------|
E|--------------------------------------------------------|

Chorus 2 (4:07):

E|-----------------------------------------------------|
B|-----------------------------------------------------|
G|--2--2--2--------------------------------------------|
D|--2--2--2-----------2-----------2--3-----------4--5--|
A|--0--0--0--0--2--3-----2--------2--3-----------4--5--|
E|--------------------------3--0--0--1--1--0--1--2--3--|

E|----------------------------------------------------------|
B|----------------------------------------------------------|
G|--2--2--2-----------------------9--10--10--9--10--11--12--|
D|--2--2--2-----------2-----------9--10--10--9--10--11--12--|
A|--0--0--0--0--2--3-----2--------7--8---8---7--8---9---10--|
E|--------------------------3--0----------------------------|

E|-----0--------0--------------------------------------------|
B|--------0--------------------------------------------------|
G|--2--------0-----------------------------------------------|
D|--2-----------------------2-----------2--3-----------4--5--|
A|--0--------------0--2--3-----2--------2--3-----------4--5--|
E|--------------------------------3--0--0--1--1--0--1--2--3--|

E|--------------------------------0----0----------5--|
B|--------------------------------0----0----------5--|
G|--2--2--2-----------------------9----9--11--12--7--|
D|--2--2--2-----------2-----------9----9--11--12--7--|
A|--0--0--0--0--2--3-----2--------7----7--9---10--5--|
E|--------------------------3--0---------------------|

Middle Section:

(5:29)

E|--------------------------|
B|--------6--5-----------8--|
G|--------------7--5-----5--|
D|-----7--------------7--7--|
A|--5--------------------5--|
E|--------------------------|

(5:59)

E|--12--12--12--12--12b13--10--17--15p13--12--8------------|
B|-----------------------------------------------8---------|
G|--------------------------------------------------10--9--|
D|---------------------------------------------------------|
A|---------------------------------------------------------|
E|---------------------------------------------------------|

(6:24)

E|--0--0------|
B|--6--6---8--|
G|--9--9--12--|
D|--7--7--10--|
A|---------0--|
E|------------|

(6:47)

E|-----------------|
B|--6--5-----8--8--|
G|--7-----5--5--5--|
D|--7--------7--7--|
A|--5--------5--5--|
E|-----------------|

(7:07)

E|--------------------------------------------------|
B|--6-----5-----6-----5-----6-----5-----6-----5-----|
G|-----5-----5-----5-----5-----5-----5-----5-----5--|
D|--------------------------------------------------|
A|--------------------------------------------------|
E|--------------------------------------------------|

(8:07)

E|-------------------------|---------------------|
B|-------------------------|---------------------|
G|-----------------10------|-------------10------|
D|--10--10--10h12------12--|--10--10h12------12--|
A|-------------------------|---------------------|
E|-------------------------|---------------------|

(8:13)

E|---x---x---x---x---x---x------------------------|
B|---x---x---x---x---x---x---x--x--x--x--x--x--12-|
G|---x---x---x---x---x---x---x--x--x--x--x--x--12-|
D|---x---x---x---x---x---x------------------------|
A|---x---x---x---x---x---x------------------------|
E|---x---x---x---x---x---x------------------------|

(8:34)

E|---x---x-------------------------------------------------------|
B|---x---x-------------------------------------------------------|
G|---x---x---------------------------------------------10------x-|
D|---x---x---10h12---10h12--10--10--10--10--10--10h12------12--x-|
A|---x---x-------------------------------------------------------|
E|---x---x-------------------------------------------------------|


E|------------------------------------------|
B|-12--10----12--10--12b13------------------|
G|-12--10----12--10--12b13--10---10--9------|
D|--------------------------------------10--|
A|------------------------------------------|
E|------------------------------------------|

(8:56)

E|------------------------------------|
B|------------------------------------|
G|----------------------------10------|
D|--10-----------------10h12------12--|
A|------12--10/12--10-----------------|
E|------------------------------------|

(9:01)

E|-----------------------------------------------------------------|
B|------------------------------------------12b13------------------|
G|--12--12--12--12--12--12--12--12--12--12--12-13--12p10-----------|
D|----------------------------------------------------------10h12--|
A|-----------------------------------------------------------------|
E|-----------------------------------------------------------------|

Pre-Solo Build Up (9:26):

E|-----------0--------------------0-----------0--|
B|--------3-----3--------------3-----------3-----|
G|-----2--------------------2-----------0--------|
D|--0--------------0--2--3-----------2-----------|
A|-----------------------------------------------|
E|-----------------------------------------------|

(10:43)

E|-----------0----------13--13--13--13--13--12--|
B|--------3-----3-------13--13--13--13--13--12--|
G|-----2----------------------------------------|
D|--0--------------0----------------------------|
A|----------------------------------------------|
E|----------------------------------------------|

E|-----------0----------13--13--13--13--13--12--|
B|--------3-----3-------13--13--13--13--13--12--|
G|-----2----------------------------------------|
D|--0--------------0----------------------------|
A|----------------------------------------------|
E|----------------------------------------------|

E|--5--|
B|--6--|
G|--5--|
D|--8--|
A|--5--|
E|-----|

Solo (11:05):

E|------------------------------------------------||
B|-----------------------13------15b17--15--15b17-||
G|-12h14--12h14--12--14------14-------------------||
D|------------------------------------------------||
A|------------------------------------------------||
E|------------------------------------------------||

--------------------------------------------------|
-------9--10------------------11--12----------12--|
----9---------10----------11----------12----------|
-9----------------10--11------------------12------|
--------------------------------------------------|
--------------------------------------------------|


(11:19)

E|-----------------12----------15r12------15r12------15r12------15r12------15r12------15b17--|
B|---------13----------13-------------13---------13---------13---------13---------13---------|
G|--12h14------14----------14----------------------------------------------------------------|
D|-------------------------------------------------------------------------------------------|
A|-------------------------------------------------------------------------------------------|
E|-------------------------------------------------------------------------------------------|

(11:27)

E|--------------------|
B|--12--13--11--12\0--|
G|--------------------|
D|--------------------|
A|--------------------|
E|--------------------|

(11:33)

E|--------------------------|
B|--13--12----------13--12--|
G|--14--12--12--12--14--12--|
D|--------------------------|
A|--------------------------|
E|--------------------------|

(11:37)

E|----------------------------------------------------------------------------------|
B|--------------------------------------------------------------------------13------|
G|--14--12--------------------------------------------------12------12--14------14--|
D|----------14--13--12----------------------12------12--14------14------------------|
A|----------------------15--12------12--15------14----------------------------------|
E|------------------------------15--------------------------------------------------|

(11:41)

E|---------12---------12--12-----12-----|
B|--15b17------15b17------15b17--15b17--|
G|--------------------------------------|
D|--------------------------------------|
A|--------------------------------------|
E|--------------------------------------|

(11:48)

E|--15--15--15b17--15b17----------------------------------------------------------|
B|------------------------15--13--15--15--15--13--15--15--15--13--15--15--15--13--|
G|--------------------------------------------------------------------------------|
D|--------------------------------------------------------------------------------|
A|--------------------------------------------------------------------------------|
E|--------------------------------------------------------------------------------|

(11:52)

E|-------------------------------------------------------------------------------------------|
B|-15b17--15b17--15p13------13----------15b17--15p13------13--------15b17--15p13------13-----|
G|----------------------14------14--14----------------14------14------------------14------14-|
D|-------------------------------------------------------------------------------------------|
A|-------------------------------------------------------------------------------------------|
E|-------------------------------------------------------------------------------------------|

(11:56)

E|---------------------------------------------------|-------|
B|--------9--10------------------11--12------12--13--|--0----|
G|-----9---------10----------11----------12----------|--2----|
D|--9----------------10--11--------------------------|--2----|
A|---------------------------------------------------|--0----|
E|---------------------------------------------------|-------|

Lyrics:

Run through forests on a hot Summer day
Trying to break down walls of numbing pain

Give me the freedom to destroy
Give me radioactive toy

Taste the water from a stream of running death
Eat the apple and cough a dying breath

Feel the sun burning through your black skin
Pour me into a hole, inform my next of kin

Run through graveyards on a dusty Winter day
Spit the dirt out and try to say

************************************

| /   slide up
| \   slide down
| h   hammer-on
| p   pull-off
| ~   vibrato
| +   harmonic
| x   Mute note
| b   Bend
| pb  Pre-bend
| br  Bend release
| pbr Pre-bend release
| brb Bend release bend

************************************
Tap to rate this tab
 
# A B C D E F G H I J K L M N O P Q R S T U V W X Y Z