Song name
# A B C D E F G H I J K L M N O P Q R S T U V W X Y Z

Porcupine Tree - Feel So Low tab

Help us improve GuitareTab! Take a short survey!
Porcupine Tree - Feel So Low

The chords are:

E	C#m	A

0	4	0
0	5	2
1	6	2
2	6	2
2	4	0
0	x	0


Main Reef

|----0--0--0---|-----0--0--0--|----0--0--0--|-----0--0--0------|
|---0--0--0--0-|---0--0--0--0-|--0--0--0--0-|---0--0--0--0-----|
|--------------|--------------|-------------|------------------|
|--------------|--------------|-------------|------------------|
|-7------------|-7------------|-------------|------------------|
|--------------|--------------|-5-----------|-5----------------|

Second Reef

|-----0--0--0---|-------------------|----0--0--0---|----0--0--0------|
|---0--0--0--0--|------5---5---5----|---0--0--0--0-|--0--0--0--0-----|
|---------------|------6---6---6----|--------------|-----------------|
|---------------|----6---6---6---6--|--------------|-----------------|
|-7-------------|--4----------------|---0----------|--0--------------|
|---------------|-------------------|--------------|-----------------|

enjoy, baba.
Related for Feel So Low tab