Song name
# A B C D E F G H I J K L M N O P Q R S T U V W X Y Z

Porcupine Tree - Pure Narcotic tab


Dadd2 A7sus4 C9 

|--0---0-0--0----|-0---0-0--0--|-0---0-0---0-|--0-0--0----|
|--3---3-3--3----|-3---3-3--3--|-3---3-3---3-|--3-3--3----|
|--0h2-2-2--2----|-0---0-0--0--|-0---0-0---0-|--0-0--0----|
|--0---0-0--0----|-0h2-2-2--2--|-2---2-2---2-|--2-2--2----|
|----------------|-0---0-0--0--|-0h3-3-3---3-|--3-3--3----|
|----------------|-------------|-------------|------------|

Bbadd2/6

|-1--1---1-1-1-|
|-0--0---0-0-0-|
|-0--0---0-0-0-| X2
|-1--1---1-1-1-|
|-1--1---1-1-1-|
|--------------|




CHORUS CHORDS:
A: 002220
Amaj13: x01222
Fmaj7: xx3210
Em: 022000


You keep me waiting

You keep me alone in a room full of friends

You keep me hating

You keep me listening to the Bends

No amount of pointless days

Can make this go away

You have me on my knees
You have me listless and deranged
You have me in your pocket
You have me distant and estranged

No narcotics in my brain
Can make this go away


(A)
I'm sorry that
(Amaj13)        (Fmaj7)        (Em)
I'm sorry that I'm not like you
(A)
I worry that
(Amaj13)        (Fmaj7)                (Em)
I don't act the way you want me to
(A)
I'm sorry that
(Amaj13)        (Fmaj7)        (Em)
I'm sorry that I'm not like you

You find me wanting
You find me bloodless but inspired
You find me out
You find me hallucinating fire

No narcotics in my brain
Can make this go away

Have we ever been here before?
Running headlong at the floor
Leave me dreaming on a railway track
Tap to rate this tab
# A B C D E F G H I J K L M N O P Q R S T U V W X Y Z