Song name
# A B C D E F G H I J K L M N O P Q R S T U V W X Y Z

Porcupine Tree - Moon Touches Your Shoulder tab

-------------------------------------------------------------------------------
	        The Moon Touches Your Shoulder - Porcupine Tree
-------------------------------------------------------------------------------
Tabbed by: Crimsoid 10.05.2007		
Email: crimsoid@wp.pl

It's Coma Divine (Live In Rome 2cd) version.

  play it with delay as intro and during 2nd and 3rd verse
e|------------14-------------0-------------0------------14-------------------|
B|------15-------------15------------15-----------15-------------------------|
G|---------12-------------14------------14-----------12----------------------|
D|--14-------------12-------------14-----------14----------------------------|
A|---------------------------------------------------------------------------|
E|---------------------------------------------------------------------------|
  play it with delay between verses
e|-----------14-----------------------12-------------------------------------|
B|-----15--------15-------------15-------15----------------------------------|
G|--------14--------14-------------14-------14-------------------------------|
D|--16-----------------16----14----------------14----------------------------|
A|---------------------------------------------------------------------------|
E|---------------------------------------------------------------------------|

  Guitar solo
e|---------------------------------------------------------------------------|
B|---------------------------------------------------------------------------|
G|---------------------------------------------------------------------------|
D|-----------9-9-9b10b9-------9-9-9b10b9--9\7--------------------------------|
A|---9--9-12-------------9-12-----------------9-7-7/9-9-9--------------------|
E|---------------------------------------------------------------------------|

e|---------------------------------------------------------------------------|
B|------------------------------12-------------13p12p10-12b13---12b13b12-10--|
G|-11-11-11-11/14--11--14-14b16-----14-11-(14)-------------------------------|
D|--x------------------------------------------------------------------------|
A|--9------------------------------------------------------------------------|
E|---------------------------------------------------------------------------|

e|------------------------------------------------------17----17-19-19b20b19-|
B|-12-12b13b12-10-10------------------------19-19-19-19----19----------------|
G|---------------------11-9/11-11-11-----------------------------------------|
D|---------------------------------------------------------------------------|
A|---------------------------------------------------------------------------|
E|---------------------------------------------------------------------------|

e|----17-19-19b20b19--17\----------------------------------------------------|
B|-19------------------------------------------------------------------------|
G|---------------------------------------------------------------------------|
D|---------------------------------------------------------------------------|
A|---------------------------------------------------------------------------|
E|---------------------------------------------------------------------------|
   (4:19)
e|---------------------------------------------------------------------------|
B|---------------------------------------------------------------------------|
G|---------------------------------------------------------------------------|
D|--4/7-------------4/7---7-------7------------------------------------------|
A|--4/7-------------4/7---7-------7------------------------------------------|
E|--2/5-5-5-5-5-5-5-2/5---5-5-5-5-5-5-5-5------------------------------------|
   Outro (same as in studio version)
e|---------------------------------------------------------------------------|
B|---------------------------------------------------------------------------|
G|---------------------------------------------------------------------------|
D|---------------------------------------------------------------------------|
A|-----9-----7------9-----7------9---------------10---------10---------10----|
E|---5---7-9---9--5---7-9---9--5---7-9--5-8-7-5-----7-8-7-5----5-8-7-5----5--|

e|---------------------------------------------------------------------------|
B|---------------------------------------------------------------------------|
G|---------------------------------------------------------------------------|
D|---------------------------------------------------------------------------|
A|-----9-----7------9-----7------9---------------10-----------------5-6-7----|
E|---5---7-9---9--5---7-9---9--5---7-9--5-8-7-5-----5-8-7-8-7-5-7-5----------|

e|---------------------------------------------------------------------------|
B|---------------------------------------------------------------------------|
G|---------------------------------------------------------------------------|
D|---------------------------------------------------------------------------|
A|-----9-----7------9-----7------9---------------10---------10---------10----|
E|---5---7-9---9--5---7-9---9--5---7-9--5-8-7-5-----7-8-7-5----5-8-7-5----5--|

e|---------------------------------------------------------------------------|
B|---------------------------------------------------------------------------|
G|---------------------------------------------------------------------------|
D|---------------------------------------------------------------------------|
A|-----9-----7------9-----7------9---------------10-----------------5-6-7----|
E|---5---7-9---9--5---7-9---9--5---7-9--5-8-7-5-----5-8-7-8-7-5-7-5----------|

| /  slide up
| \  slide down
| h  hammer-on
| p  pull-off
| b  bend
| ~  vibrato
| +  harmonic
| x  Mute note
===============================================================================
Tap to rate this tab
# A B C D E F G H I J K L M N O P Q R S T U V W X Y Z