Song name
# A B C D E F G H I J K L M N O P Q R S T U V W X Y Z

Porcupine Tree - Last Chance To Evacuate Planet Earth Before It Is Recycled tab

Last Chance to evacuate planet earth before its recycled

Standard Tuning

INTRO
(strum)
  D      |C      |F       |G       |
e|-10------8--7----1--------3-------|
B|-7-------5--5----1--------3-------|
G|-7-------5--5----2--------4-------|
D|-7-------5--5----3--------5-------|         x2
A|-----------------3--------5-------|
E|-----------------1--------3-------|

  D              |C              |F          |G                |
e|--------------------------------------------------------8(8)8-|
B|-------------8-8/10-8-----------------------6-5---5-6-8-------|
G|-----5--7-------------7--5----------------5-----7-------------|
D|--5h7----------------------7-3---------5h7--------------------|
A|-------------------------------3-3/5-5------------------------|
E|--------------------------------------------------------------|

   D              |C          |F           |G                  |
e|-8s10--------8---8---10-----------------------------------------|
B|-----10(10)---10--10----------------------6----6(6)-8-6-6s5-----|
G|-------------------------------------------5s7--------------5s7-|
D|----------------------------------------------------------------|
A|----------------------------------------------------------------|
E|----------------------------------------------------------------|

any problems please email at nitish_theone@yahoo.co.in
Tap to rate this tab
 
# A B C D E F G H I J K L M N O P Q R S T U V W X Y Z