Song name
# A B C D E F G H I J K L M N O P Q R S T U V W X Y Z

Porcupine Tree - Shes Moved On tab

Was feeling kind of optimistic Christmas Eve Eve (this is not a typo) so I decided to
out some songs from one of my fav. Porcupine Tree albums, "Lightbulb Sun". This is one of
few I'm going to tab out, along with "Four Chords that Made a Million" and "Hatesong". 
also already tabbed out "Russia on Ice" prior, so be sure to check that one out as well.

All of the tabs that do exist for these songs, as far as I've seen, are Pro-Tabs, making
very depressing for people who do not have the software. I'm offering an alternative to this.

Seeing as this album is out of print, I found it disappointing that there were hardly
worthwhile tabs for this extraordinary album. That's why I've decided to focus on this
rather than others, but songs from other albums are most likely on their way. (Signify, 
Absentia, Deadwing among others)

This is a very easy song to play, and good for people who are still new to guitar. I DID
TAB THE SOLO (at the end). I'm much too lazy. I'm also not
100% sure the chorus is correct, but I think it sounds right.

Be sure to check out my other tabs by clicking on my user name in the top right. There
be more to come, just be patient....

By the way, be sure to spread the word that Porcupine Tree actually exists. I didn't
about them until fairly recently and they've quickly become my 2nd favorite band (next to
of course). More people need to know about this amazing group. They deserve so much more 
popularity, and fans than they have.

You all know the legend.

Gtr. I: Electric, clean.
Gtr. II: Accoustic.
Gtr. III: Electric with distorion and a lot of"fuzz". Listen to the song and
         you'll know what I mean.

VERSE I:

Gtr. I: (0:00)
:e|------------------------|--------------------------|
:B|------------------------|--------------------------|
:G|------------------------|--------------------------|
:D|------------------------|-------------------9---9--|
:A|-----9---9h10---7---7---|-----9---9h10---7---------|
:E|-0------------0---------|-0------------0-----------|

e|------------------------|--------------------------|
B|------------------------|--------------------------|
G|------------------------|--------------------------|
D|------------------------|-------------------9--7-5-|
A|-----9---9h10---7---7---|-----9---9h10---7---------|
E|-0------------0---------|-0------------0-----------|

e|--------------------------|:
B|--------------------------|:
G|--------------------------|:
D|-4-----------5----5-5-----|: x4
A|-----5---6------6-----6---|:
E|--------------------------|:

Lyrics:
"You move in waves
You never retrace
Your newest craze
Straight out of the face by the bed unread"

"I'm left behind
Like all the others
Some fall for you
It doesn't make much difference if they do"

CHORUS:

Gtr. II: (1:07)
           1:"She changes every time you look. By summer it was
           2:"She called you every other day. So savor it it's
Em                            C
:e|-0--0-0-0--0--0-0-0--0-0-0-0-|-0--0-0-0--0--0-0-0--0-0-0-0-|
:B|-0--0-0-0--0--0-0-0--0-0-0-0-|-1--1-1-1--1--1-1-1--1-1-1-1-|
:G|-0--0-0-0--0--0-0-0--0-0-0-0-|-0--0-0-0--0--0-0-0--0-0-0-0-|
:D|-2--2-2-2--2--2-2-2--2-2-2-2-|-2--2-2-2--2--2-2-2--2-2-2-2-|
:A|-2--2-2-2--2--2-2-2--2-2-2-2-|-3--3-3-3--3--3-3-3--3-3-3-3-|
:E|-0--0-0-0--0--0-0-0--0-0-0-0-|-----------------------------|
1-2: All__________gone.    Now______she's moved on.
  D                             Am
e|-2--2-2-2--2--2-2-2--2-2-2-2-|-0--0-0-0--0--0-0-0--0-0-0-0-|:
B|-3--3-3-3--3--3-3-3--3-3-3-3-|-1--1-1-1--1--1-1-1--1-1-1-1-|:
G|-2--2-2-2--2--2-2-2--2-2-2-2-|-2--2-2-2--2--2-2-2--2-2-2-2-|:
D|-0--0-0-0--0--0-0-0--0-0-0-0-|-2--2-2-2--2--2-2-2--2-2-2-2-|: x2
A|-0--0-0-0--0--0-0-0--0-0-0-0-|-0--0-0-0--0--0-0-0--0-0-0-0-|:
E|-----------------------------|-----------------------------|:

VERSE II:

Gtr. III: (1:34)
:e|------------------------|--------------------------|
:B|------------------------|--------------------------|
:G|------------------------|--------------------------|
:D|------------------------|-------------------9---9--|
:A|-----9---9h10---7---7---|-----9---9h10---7---------|
:E|-0------------0---------|-0------------0-----------|

e|------------------------|--------------------------|
B|------------------------|--------------------------|
G|------------------------|--------------------------|
D|------------------------|-------------------9--7-5-|
A|-----9---9h10---7---7---|-----9---9h10---7---------|
E|-0------------0---------|-0------------0-----------|

e|--------------------------|:
B|--------------------------|:
G|--------------------------|:
D|-4-----------5----5-5-----|: x2
A|-----5---6------6-----6---|:
E|--------------------------|:

"So for a while
Everything seemed new
Did we connect?
Or was it all just biding time for you?"

REPEAT CHORUS

"All gone away. She's movin' on."

BRIDGE:

Gtr. II: (2:35)
   "She's moved on."            "She's moved on."
   Em                            C
:e|-0--0-0-0--0--0-0-0--0-0-0-0-|-0--0-0-0--0--0-0-0--0-0-0-0-|:
:B|-0--0-0-0--0--0-0-0--0-0-0-0-|-1--1-1-1--1--1-1-1--1-1-1-1-|:
:G|-0--0-0-0--0--0-0-0--0-0-0-0-|-0--0-0-0--0--0-0-0--0-0-0-0-|:
:D|-2--2-2-2--2--2-2-2--2-2-2-2-|-2--2-2-2--2--2-2-2--2-2-2-2-|: x2
:A|-2--2-2-2--2--2-2-2--2-2-2-2-|-3--3-3-3--3--3-3-3--3-3-3-3-|:
:E|-0--0-0-0--0--0-0-0--0-0-0-0-|-----------------------------|:

Gtr. II: (2:48)
    Em Em G
:e|-0--0--1--1--1-1-1-1-1-|:
:B|-0--0--0--0--0-0-0-0-0-|:
:G|-0--0--0--0--0-0-0-0-0-|:
:D|-2--2--0--0--0-0-0-0-0-|: x2
:A|-2--2--2--2--2-2-2-2-2-|:
:E|-0--0--3--3--3-3-3-3-3-|:

   D  D  D#
e|-2--2--3--3--3-3-3-3-3-|
B|-3--3--4--4--4-4-4-4-4-|
G|-2--2--3--3--3-3-3-3-3-|
D|-0--0--0--0--0-0-0-0-0-| x2
A|-0--0--0--0--0-0-0-0-0-|
E|-----------------------|

REPEAT CHORUS

SOLO/CODA:

Gtr. II: (3:25)
   E                             C
:e|-0--0-0-0--0--0-0-0--0-0-0-0-|-0--0-0-0--0--0-0-0--0-0-0-0-|
:B|-0--0-0-0--0--0-0-0--0-0-0-0-|-1--1-1-1--1--1-1-1--1-1-1-1-|
:G|-0--0-0-0--0--0-0-0--0-0-0-0-|-0--0-0-0--0--0-0-0--0-0-0-0-|
:D|-2--2-2-2--2--2-2-2--2-2-2-2-|-2--2-2-2--2--2-2-2--2-2-2-2-|
:A|-2--2-2-2--2--2-2-2--2-2-2-2-|-3--3-3-3--3--3-3-3--3-3-3-3-|
:E|-0--0-0-0--0--0-0-0--0-0-0-0-|-----------------------------|
  D                             Am
e|-2--2-2-2--2--2-2-2--2-2-2-2-|-0--0-0-0--0--0-0-0--0-0-0-0-|:
B|-3--3-3-3--3--3-3-3--3-3-3-3-|-1--1-1-1--1--1-1-1--1-1-1-1-|:
G|-2--2-2-2--2--2-2-2--2-2-2-2-|-2--2-2-2--2--2-2-2--2-2-2-2-|:
D|-0--0-0-0--0--0-0-0--0-0-0-0-|-2--2-2-2--2--2-2-2--2-2-2-2-|: x8
A|-0--0-0-0--0--0-0-0--0-0-0-0-|-0--0-0-0--0--0-0-0--0-0-0-0-|:
E|-----------------------------|-----------------------------|:

THE END

PLEASE RATE!!
Tap to rate this tab
 
# A B C D E F G H I J K L M N O P Q R S T U V W X Y Z