Guitaretab - guitar tabs
Song name
# A B C D E F G H I J K L M N O P Q R S T U V W X Y Z

Porcupine Tree - Rest Will Flow tab

-------------------------------------------------------------------------------
			     The rest will flow - Porcupine Tree
-------------------------------------------------------------------------------
Tabbed by: Cosmic_Apocalyp
Email: cosmic_apocalypse_1@hotmail.com

Tuning: standard ebgdae

This is a very simple and looped song, but still a very beautiful song, and since I couldn't 
find any tab on the internet I decided to post it here, hope

you enjoy.

Chords used : G : 320033
             G7 : 3x0032
            Em7 : xx2033
           G7/D : xx0032
             Bb : x13331
             Am : x02210
              D : xx0232
              F : x8/10/10/xx
              E : x799xx
              C : x355xx
              A : x022xx

      G    G    G7                            Em7 Em7 G7/D
[ Tab from: http://www.guitaretab.com/p/porcupine-tree/73014.html ]
                      *let it ring...                                    *let it ring...
e|----3---3----2---------3---3----2----------3---3----2----------3--3----2----------------|
B|----3---3----3---------3---3----3----------3---3----3----------3--3----3----------------|
G|----0---0----0---------0---0----0----------0---0----0----------0--0----0----------------|
D|----0---0----0---------0---0----0----------2---2----0----------2--2----0----------------|
A|----2---2----x---------2---2----x----------x---x----x----------x--x----x----------------|
E|----3---3----3---------3---3----3----------x---x----x----------x--x----x----------------|


The verse is always the same chord progression ( G G G7 - Em7 Em7 G7/D )

The only variation is the minute 1:22 of the song ( Bb-m followed by G and continues the 
pattern ) :

    Bb   Am
e|--1----0---------------------------------------------------------------------|
B|--3----1---------------------------------------------------------------------|
G|--3----2---------------------------------------------------------------------|
D|--3----2---------------------------------------------------------------------|
A|--1----0---------------------------------------------------------------------|
E|--x----x---------------------------------------------------------------------|


The end of the song starts with a ringing D chord that's followed by F - E - C - A - G (minute 3:00) :


    D                F  E  C     A         G

      *let it ring...
e|--2----------------x--x--x-----x---------3-------------------------------------------|
B|--3----------------x--x--x-----x---------3-------------------------------------------|
G|--2---------------10--9--5-----2---------0-------------------------------------------|
D|--0---------------10--9--5-----2---------0-------------------------------------------|
A|--x----------------8--7--3-----0---------2-------------------------------------------|
E|--x----------------x--x--x-----x---------3-------------------------------------------|
Related for Rest Will Flow tab
Rest Will Flow chords by Porcupine Tree