Song name
# A B C D E F G H I J K L M N O P Q R S T U V W X Y Z

Porcupine Tree - Radioactive Toy tab

That is my first tab so please don't be mad if there are some mistakes. I tried my best. 
was all I could figure out for now. The soli were jeust to hard. So enjoy the tab and 
fun with learning it. :)

Main Riff:

e|---------------------------------------------------------------|
B|---------------------------------------------------------------|
G|--2--2---------------------------------------------------------|
D|--2--2-------------2---------2--3--3-2-3--4---5---5-4-5--------|
A|--0--0-----0-2-3-3---2-------2--3--3-2-3--4---5---5-4-5--------|
E|------------------------3-0--0--1--1-0-1--2---3---3-2-3--------|

Riff: (begins after 5 minutes)

e|--------0--------------------0-----------0----------------------|
B|------3----3--------------3-----------1-------------------------|
G|----2------------------2-----------0----------------------------|
D|--0-----------0--2--3-----------2-------------------------------|
A|----------------------------------------------------------------|
E|----------------------------------------------------------------|

If you could find some mistakes please email me at vineyardius@hotmail.com

Rock on!
Tap to rate this tab
 
# A B C D E F G H I J K L M N O P Q R S T U V W X Y Z