Song name
# A B C D E F G H I J K L M N O P Q R S T U V W X Y Z

Porcupine Tree - Voyage 34 Phase I tab

Porcupine Tree-Voyage 34 Phase I
Tabbed by: Matt Brinn

Part 1- Pink Floyd riff
e------------------------------------------------------|
B------------------------------------------------------|
G------------------------------------------------------|
D-------------------------------------3----------------|
A-5--555-555-555-555-555-555-55-3-3h5----5-------------|
E------------------------------------------------------|

Part 2- Pink Floyd riff part 2
e------------------------------------------------------|
B------------------------------------------------------|
G------------------------------------------------------|
D-------------------------------7-77-5-5-------3-------|
A-5--555-555-555-555-555-555-55----------3-3h5---5-----|
E------------------------------------------------------|


Part 3- Comes in at about 7:31
e-0------------------0----------------------------------|
B-3---------------3--3----------------------------------|
G-2--------0--2------2----------------------------------|
D-0--0--3------------0----------------------------------|
A-------------------------------------------------------|
E-------------------------------------------------------|

Part 4- "He sobs as his joy turns to fear..."
e--------------------------3---------------------|
B-3~--------3~---------3~----3---------3---------|
G-2~-----2--2~---------0~------0----2--2---------|
D-0~--0-----0~------2--2~--------0-----0---------|
A-----------------3------------------------------|
E------------------------------------------------|

The solo is already tabbed out on this site, but for those that wish to improvise, it's 
E minor with a strong emphasis on the A Dorian mode. The solo ends by returning to the 
4 riff, then there is some sampling, then it's over...
Tap to rate this tab
# A B C D E F G H I J K L M N O P Q R S T U V W X Y Z