Song name
# A B C D E F G H I J K L M N O P Q R S T U V W X Y Z

Porcupine Tree - Moonloop Coda tab

-------------------------------------------------------------------------------
			     MOONLOOP (CODA) - Porcupine Tree
-------------------------------------------------------------------------------
Tabbed by: Crimsoid
Email: crimsoid@wp.pl

PART I  0:00-0:55

e|---------------------------------------------------------------------------|
B|---------------------------------------------------------------------------|
G|---------------------------------------------------------------------------|
D|---------------5---------------5-------------------------------------------|
A|---------------------------------------------------------------------------|
E|--0-0-3--0-0-3---3-0-0-3-0-0-3--3-0-0-3------------------------------------|

PART II  0:56-1:03

e|---------------------------------------------------------------------------|
B|---------------------------------------------------------------------------|
G|----------------------6----------------------------------------------------|
D|------4-------5---4----------5---------------------------------------------|
A|----------3--------------3-------------------------------------------------|
E|---2-----------------------------------------------------------------------|

PART I   1:04-1:27


PART III 1:28-1:34

e|---------------------------------------------------------------------------|
B|---------------------------------------------------------------------------|
G|-------------------------6-6-----------------------------------------------|
D|------4-4-------5-5--4-4----------5-5--------------------------------------|
A|-----------3-3---------------3-3-------------------------------------------|
E|--2-2----------------------------------------------------------------------|

PART I   1:35-1:58


PART III 1:59-2:05


PART IV  2:06-2:17
 
e|---------------------------------------------------------------------------|
B|---------------------------------------------------------------------------|
G|---------------------------------------------------------------------------|
D|---------------------------------------------------------------------------|
A|-----7---5-5-----5---5h7-7---5-5-----5---5h7-------------------------------|
E|-------7-----7-7---7-------7-----7-7---7-----------------------------------|

e|---------------------------------------------------------------------------|
B|---------------------------------------------------------------------------|
G|---------------------------------------------------------------------------|
D|-----5---3-3-----3---3h5-5---3-3-----3---3h5-------------------------------|
A|-------5-----5-5---5-------5-----5-5---5-----------------------------------|
E|---------------------------------------------------------------------------|

e|---------------------------------------------------------------------------|
B|---------------------------------------------------------------------------|
G|---------------------------------------------------------------------------|
D|-----8---6-6-----6---6h8-8---6-6----6---6h8--------------------------------|
A|-------8-----8-8---8-------8----8-8---8------------------------------------|
E|---------------------------------------------------------------------------|


PART III  2:18-2:21
PART IV   2:22-2:33
PART III  2:34-2:41
PART IV   2:42-2:52
PART III  2:53-2:59
PART I    3:00-3:15

PART V    3:16-3:35

e|---------------------------------------------------------------------------|
B|---------------------------------------------------------------------------|
G|---------------------------------------------------------------------------|
D|-----4-4-4-4-4-4---5-------------------------------------------------------|
A|-----4-4-4-4-4-4---5-------------------------------------------------------|
E|---2-2-2-2-2-2-2-3-3-------------------------------------------------------|


Enjoy it :)



| /  slide up
| \  slide down
| h  hammer-on
| p  pull-off
| ~  vibrato
| +  harmonic
| x  Mute note
===============================================================================
Tap to rate this tab
# A B C D E F G H I J K L M N O P Q R S T U V W X Y Z