Song name
# A B C D E F G H I J K L M N O P Q R S T U V W X Y Z

Porcupine Tree - Yellow Hedgerow Dreamscape tab

-------------------------------------------------------------------------------
			     Yellow Hedgerow Dreamscape - Porcupine Tree
-------------------------------------------------------------------------------

Tabbed by: Crimsoid 7.05.2007
Email: crimsoid@wp.pl


This is Yellow Hedgerow Dreamscape from 'Staircase Infinities' (9:36).
I don't write all of those vibratos and stuff - use your ears to make
it as you want it to hear.


    Guitar solo I (3:41)

e|---------------------------------------------------------------------------|
B|------15b17--15b17-15b17-15-12-----------------------------------------14--|
G|-------------------------------14-16-16--16-14-12----12----------------14--|
D|-2------------------------------------------------14----14--14-12-14---14--|
A|-2-------------------------------------------------------------------------|
E|-0-------------------------------------------------------------------------|
	 few times
-------------------------------------------------------------------10-10-----|
----------15-15b17-----------------------------------------------------------|
---14b16----------14-12-14--11b12--11h12p11-11h12p11p9h11-11-11h12-----------|
-----------------------------------------------------------------------------|
-----------------------------------------------------------------------------|
-----------------------------------------------------------------------------|

--10h12---------------------------------------------12-12-14-14-17-17--------|
--------12-12--10-12-12b13-13p12p10-12--------15-15--------------------------|
---------------------------------------11-11---------------------------------|
-----------------------------------------------------------------------------|
-----------------------------------------------------------------------------|
-----------------------------------------------------------------------------|

-----------------------------------------------------------------------------|
---17-15-14------------------------------------------------------------------|
------------14-14-14-12-11-12-11-----------------11-12-11-12-9---------------|
---------------------------------12/14--------12---------------12-14---------|
----------------------------------------12-14--------------------------------|
-----------------------------------------------------------------------------|

-----------------------------------------------------------------------------|
-----------------------------12----12b13--13p12p10h12--14-14-----------------|
-------------------11--11-14----14---------------------14-14--12-9-9---------|
-12b14b12-12--9-12-----------------------------------------------------------|
-----------------------------------------------------------------------------|
-----------------------------------------------------------------------------|

------------------------------------------------------------------------------|
------------------------------------------------------------------------------|
-9------------------------------------------12--------------------------------|
---12-9-------------------------------12-14----14-12--------------12-14-14-14-|
--------12-12-10-------------10-12/14-----------------12-12h14-14-------------|
-----------------12-12-10h12--------------------------------------------------|
               (5:15) play this chord few times
-----------------------------------------------------------------------------|
-----------------------------------------------------------------------------|
-----------------------------------------------------------------------------|
----------------------14------14---------------------------------------------|
-12-14-14b16----------14------14---------------------------------------------|
------------------12--12---12-12---------------------------------------------|
   Guitar solo II (5:51)
------------------------------------------------------------------------------|
------------------------------------------------------------------------------|
---14b16-14b16-14b16b14p12---12--12----14b16-14b16-14b16b14p12--12--12--------|
---------------------------14--14--14-------------------------14--14--14------|
------------------------------------------------------------------------------|
------------------------------------------------------------------------------|
          few times
-----------------------------------------------------------------------------|
---------------15-----15b17--15b17b15----------------------------------------|
-12----12--14b16------------------------12-11-12-14-11--------------12h14----|
----14-------------------------------------------------12/14--12h14----------|
-----------------------------------------------------------------------------|
-----------------------------------------------------------------------------|
						    few times
-------------------------------------------------12-------12-----------------|
---------------------------------------12-15-15--15b17-15-15b17-15-----------|
--14b16-14b16b14p12--12----------12-14---------------------------------------|
-------------------14--14-14--14---------------------------------------------|
-----------------------------------------------------------------------------|
-----------------------------------------------------------------------------|
  (6:25)
----------------------------------------------12-14-12-----------------------|
-------------------------------------12-12-15----------15-14-----------------|
--------------11-11b12-11b12b11-9-11-------------------------14-14-----------|
--12/14-12-14------------------------------------------------------14-14-----|
-----------------------------------------------------------------------------|
-----------------------------------------------------------------------------|
					  few times
---------------------------------------------------------------------------14-|
--------------------------------------------14-14----14-14---------------12---|
--------------------------------------------14-14-12-14-14-12---12-11--11-----|
-12-11-12-11--11h12h14p12p11--------12-14---14-14----14-14--------------------|
--------------------------14--14----------------------------------------------|
------------------------------------------------------------------------------|

--14/17-------------------------------15h17--14h15p14------------------------|
--------17-15-14-14--15-14-15-17-17------------------15---12-12--------------|
----------------------------------------------------------------12/14--------|
-----------------------------------------------------------------------------|
-----------------------------------------------------------------------------|
-----------------------------------------------------------------------------|

-----------------------------------------------------------------------------|
-----------------------------------------------------------------------------|
--14-12-14-12-11h12h14--11h12h14p12p11------------12h14-----12-14b16b14------|
---------------------------------------14-12--12h14------14------------------|
-----------------------------------------------------------------------------|
-----------------------------------------------------------------------------|
                              (7:11)
-----------------------------------------------------------------------------|
-----------------------------------------------------------------------------|
--12h14p12-14--14-14-14-14---------------------------------------------12h14-|
-------------------------------12h14-12h14-12h14-12h14-12h14p12p9h12h14------|
-----------------------------------------------------------------------------|
-----------------------------------------------------------------------------|

-----------------------------------------------------------------------------|
----------------------12-----------------------------------------------------|
--14p12p11---11p12p14----14p12p11----11h12h14b16-11h12p11--------------------|
----------14----------------------14-----------------------------------------|
-----------------------------------------------------------------------------|
-----------------------------------------------------------------------------|
   (7:19)
-----------------------------------------------------------------------------|
---12-12-15-15-12------------------------------------------------------------|
------------------12-11h12p11----11-11--11h12p11-----------------------------|
------------------------------14-----------------14---14-14-14-14-14---------|
-----------------------------------------------------------------------------|
-----------------------------------------------------------------------------|
           few times                          few times
--------------------------------------------12-------12----------------------|
--------------17-------------17-------------15b17-15-15b17-15----------------|
-----16-------------16-------------------------------------------------------|
--14----14-14----14----14-14------14-14-14-----------------------------------|
-----------------------------------------------------------------------------|
-----------------------------------------------------------------------------|

One of the Porcupine Tree's classics. Enjoy it :)

| /  slide up
| \  slide down
| h  hammer-on
| b  bend
| p  pull-off
| ~  vibrato
| +  harmonic
| x  Mute note
===============================================================================
Tap to rate this tab
 
# A B C D E F G H I J K L M N O P Q R S T U V W X Y Z