Song name
# A B C D E F G H I J K L M N O P Q R S T U V W X Y Z

Porcupine Tree - Oceans Have No Memory tab

-------------------------------------------------------------------------------
	           Oceans Have No Memory - Porcupine Tree
-------------------------------------------------------------------------------

Tabbed by: Crimsoid 10.05.2007
Email: crimsoid@wp.pl

 Some parts was played very quiet ( ) so listen carefuly.

e|---------------------------------------------------------------------------|
B|-----4h5----4h5--------------4h5----4h5-----------4h5-5p4--------5--5p4----|
G|-----4--6---4--6--2/4-2-(1)--4--6---4--6--2/4-2---4---(4)--------4--4------|
D|-----6------6----------------6------4-------------------------4--6--6------|
A|----------------------------------------------------------4h6--------------|
E|---------------------------------------------------------------------------|
	           (0:35)
e|---------------------------------------------------------------------------|
B|---------------------------------------------------------------------------|
G|--6-4-------6--------------------(2)----6--4-----------2-1-(1)-------------|
D|--6----6h7--6----------------(2)--------6--6---------4---------------------|
A|-----------------(0)-(0)h(2)---------------------2/4-----------------------|
E|---------------------------------------------------------------------------|
     (0:48)                                    (1:06)    (1:11)
e|---4-----4--------------4-----4--------------------------------------------|
B|---4h5---4h5------------4h5---4h5---------------5-(4)----5--4--------------|
G|---4--6--4--6--2/4-2-1--4--6--4--6--2/4-(2)-----4--------4--4--------------|
D|---6-----6--------------6-----6-----------------6--------6-----------------|
A|---------------------------------------------------------------------------|
E|---------------------------------------------------------------------------|
    Background solo guitar (1:06)
e|--12-12p11---11p9---9\7---7\5---5\4----4\2---2p0---------------------------|
B|-----------12-----10----9-----7-----5------4-----2---5p4----4-4h5----------|
G|---------------------------------------------------------4-----------------|
D|---------------------------------------------------------------------------|
A|---------------------------------------------------------------------------|
E|---------------------------------------------------------------------------|
     (1:15)                                (1:30)
e|---------------------------------------------------------------------------|
B|-------------------------10--9-----------10-10p9---------------------------|
G|---6-4------4---6--------9---9--------9--9---9p9---------------------------|
D|---6----6h7-----6---7----11------9h11----11-11p(9)-------------------------|
A|---------------------------------------------------------------------------|
E|---------------------------------------------------------------------------|
     (2:21)                                     +background solo guitar
e|---4-----4----------------4-----4------------------------------------------|
B|---4h5---4h5--------------4h5---4h5---------------5-(4)----5--4------------|
G|---4--6--4--6--2/4-2-(1)--4--6--4--6----2/4-------4--------4--4------------|
D|---6-----6----------------6-----6-----------------6--------6---------------|
A|---------------------------------------------------------------------------|
E|---------------------------------------------------------------------------|
     (2:49)
e|---------------------------------------------------------------------------|
B|-------------------------------------5-------------------------------------|
G|----6-4------4------6---------2------4-------------------------------------|
D|----6----6h7---7----6-------4--------6-------------------------------------|
A|------------------------2/4------------------------------------------------|
E|---------------------------------------------------------------------------|

 Use echo effect from 0:48 and during the background solo.



| /  slide up
| \  slide down
| h  hammer-on
| p  pull-off
| ~  vibrato
| +  harmonic
| x  Mute note
===============================================================================
Tap to rate this tab
 
# A B C D E F G H I J K L M N O P Q R S T U V W X Y Z