Song name
# A B C D E F G H I J K L M N O P Q R S T U V W X Y Z

Porcupine Tree - In Formaldehyde tab

-------------------------------------------------------------------------------
		         In Formaldehyde - Porcupine Tree
-------------------------------------------------------------------------------

Tabbed by: Crimsoid 10.05.2007
Email: crimsoid@wp.pl

It's from Recordings album that is gonna be re-released soon :)

   Theme I
e|-0---0---0---0---0---0---0---0---0---0---0---0---0---0---0---0-------------|
B|--4---4---4---4---4---4---4---4---3---3---3---3---3---3---3---3------------|
G|---4---4---4---4---3---3---3---3---2---2---2---2---2---2---2---2-----------|
D|----4---4---4---4---4---4---4---4---0---0---0---0---3---3---3---3----------|
A|---------------------------------------------------------------------------|
E|---------------------------------------------------------------------------|

e|-0------0------0-----0------0------0------0--------------------------------|
B|--3------3------3------3------3------3------3------------------------------|
G|----2------2------2------2------2------2------2----------------------------|
D|------0------0------0------3------3------3------3--------------------------|
A|---------------------------------------------------------------------------|
E|---------------------------------------------------------------------------|

  Theme II
  x4  x4  x4  x4  x4  x6  x2
e|-0---0---0---0---0---0---0-------------------------------------------------|
B|--4---4---3---4---4---3---0------------------------------------------------|
G|---4---3---2---4---3---2---2-----------------------------------------------|
D|----4---4---0---4---4---0---1----------------------------------------------|
A|---------------------------------------------------------------------------|
E|---------------------------------------------------------------------------|

  Guitar solo
e|---------------------------------------------------------------------------|
B|---17b19-17-16-17p16-------------------------------------------------------|
G|---------------------15-15----14-14h16-14--16p14---------------------------|
D|---------------------------16--------------------16-15--15-15-15h16--------|
A|---------------------------------------------------------------------------|
E|---------------------------------------------------------------------------|

e|---------------------------------------------------------------------------|
B|-14-------16h17p16/19-21-19-19--19-21-21b22b21-19--------------------------|
G|----16-16-----------------------------------------21-----------------------|
D|---------------------------------------------------------------------------|
A|---------------------------------------------------------------------------|
E|---------------------------------------------------------------------------|

e|--------------------------19--19p18----------------------------------------|
B|-16-17-16-19--16-17-16-17----------19h21p19---------------14-14b15b14------|
G|--------------------------------------------20h21p20---16------------------|
D|---------------------------------------------------------------------------|
A|---------------------------------------------------------------------------|
E|---------------------------------------------------------------------------|

e|------------------------------------------------------------------16-------|
B|--14b15b14p12--------------------17b19-19p18-19p18-19-21-16-17-19----19----|
G|--------------14-14-14-14-14/16--------------------------------------------|
D|---------------------------------------------------------------------------|
A|---------------------------------------------------------------------------|
E|---------------------------------------------------------------------------|

e|---------------------------------------------------------------------------|
B|-21-21b22b21p19-21-21b22b21--19-21--22-21-19-------------------------------|
G|---------------------------------------------21-19-------------------------|
D|---------------------------------------------------------------------------|
A|---------------------------------------------------------------------------|
E|---------------------------------------------------------------------------|

e|---------------------------------------------------------------------------|
B|--19-17-15-----------------------------------------------------------------|
G|-----------17-14--14b15b14-12-14p12----------------------------------------|
D|-----------------------------------15-16--14p13-14p13-14p13----------------|
A|------------------------------------------------------------14-14/16-14----|
E|---------------------------------------------------------------------------|

e|---------------------------------------------------------------------------|
B|---------------------------------------------------------------------------|
G|--------------------------------14h16-14-14h16-16-16b17b16p14h16-----------|
D|----------------14h16-14-13-13---------------------------------------------|
A|-------14h16/18------------------------------------------------------------|
E|-14h16---------------------------------------------------------------------|

e|---------------------------------------------------------------------------|
B|---------------------------------------------------------------------------|
G|--16b17b16p14----14-16-14-16-16b17b16p14-16b17-17--------------------------|
D|--------------16-----------------------------------------------------------|
A|---------------------------------------------------------------------------|
E|---------------------------------------------------------------------------|

Have fun :)


| /  slide up
| \  slide down
| h  hammer-on
| p  pull-off
| ~  vibrato
| +  harmonic
| x  Mute note
===============================================================================
Tap to rate this tab
# A B C D E F G H I J K L M N O P Q R S T U V W X Y Z