Song name
# A B C D E F G H I J K L M N O P Q R S T U V W X Y Z

Porcupine Tree - Every Home Is Wired tab

Song: Every Home Is Wired
Artist: Porcupine Tree
Album: Signify


This is the tab for the first half of the song, the part that I think of when I hear
the title. The other half is totally different. I was shocked to see that there
were no tabs of it because it's such a good song, so I decided to try and make it
myself. There is some variation throughout the song, but this is the basic gist
of it. Other than that, I think it's pretty accurate.

Riff 1
e|0~----0~--0~--0~----------0~----0~--------0~--0~--------0-0~--0-|
B|2~----0~--2~--3~----------3~--0-1~--------1~--0~--------0-1~--0-|
G|2~----2~--2~--0~----------0~--0-2~--------2~--2~--------2-2~--2-|
D|2~----2~--2~--2~----------2~--0-3~--------3~--3~--------3-3~--3-|
A|0~----0~--0~--3~--------3-3~--0-3~--------3~--3~--------3-3~--3-|
E|----------------------------------------------------------------|
  1+2+3+4+1+2+3+4+1+2+3+4+1+2+3+4+1+2+3+4+1+2+3+4+1+2+3+4+1+2+3+4+

Riff 2
e|0~----0~--0~--0~----------0~----0~--------0---0~--------0-0~--0-|
B|2~----0~--2~--3~----------3~--0-1~--------1---0~--------0-0~--0-|
G|2~----2~--2~--0~----------0~--0-2~--------2---0~--------0-0~--0-|
D|2~----2~--2~--2~----------2~--0-3~--------3---2~--------2-2~--2-|
A|0~----0~--0~--3~--------3-3~--0-3~--------3---2~--------2-2~--2-|
E|----------------------------------------------0~--------0-0~--0-|
  1+2+3+4+1+2+3+4+1+2+3+4+1+2+3+4+1+2+3+4+1+2+3+4+1+2+3+4+1+2+3+4+

Riff 3
e|--------0---------------4---------------0---------------2-------|
B|----2-----2-------5-------5---------3-----3-------3-------3-----|
G|------2-------------6-------6---------0-------------4-------4---|
D|------------0---------6-------------------------------4-------4-|
A|0-------------4---------------0-3-----------3-2-----------------|
E|----------------------------------------------------------------|
  1+2+3+4+1+2+3+4+1+2+3+4+1+2+3+4+1+2+3+4+1+2+3+4+1+2+3+4+1+2+3+4+


Intro:
Riff 1
Riff 2
Verse 1:
Riff 1
Riff 1
Riff 2
Riff 1
Verse 2:
Riff 1
Riff 1
Riff 2
Chorus:
Riff 3
Riff 3
Riff 3
Verse 3:
Riff 1
Riff 1
Riff 2
Chorus:
Riff 3
Riff 3
Riff 3
End on Amaj

Lyrics:
Modem load and failsafe
Electric teenage dust
Hit the solvent keypad
Start the neural rust

Power on the highway
Data in my head
Surfing on the network
Part of me is dead

Every Home is Wired

Swimming in the circuit
Somebody has expired
This world will be the future

Every Home is Wired
Tap to rate this tab
# A B C D E F G H I J K L M N O P Q R S T U V W X Y Z