Song name
# A B C D E F G H I J K L M N O P Q R S T U V W X Y Z

Porcupine Tree - Lips Of Ashes tab

Let ring throughout
E|---------0------------|
B|-----7-------7--------|
G|-------0--------0---0-|repeat through verse
D|---5-------5------5---|
A|----------------------|
e|-0--------------------|

E|---------0------------|---------0-------------|---------0------------|
B|-----3-------3--------|-----3-----3-----------|------3------3--------|
G|---0---0---0---0---0--|---0---0-----0----0----|---0---0---0---0---0--|
D|-----------------2----|----------------2------|-----------------2----|
A|-3--------------------|-2---------------------|-2--------------------|
e|----------------------|-----------------------|----------------------|

|--------0--------------|
|-----3------3----------|
|---0---0---0---0-------|
|------------------2----|
|-2---------------------|
|--------------------3--|

E|---------0------------|
B|-----7-------7--------|
G|-------0--------0---0-|
D|---5-------5------5---|
A|----------------------|
e|-0--------------------|

E|---------0------------|---------0-----------|--------0------------|
B|-----3-------3--------|-----0-------0-------|-----0------0--------|
G|---0---0---0---0------|---2---2---2---2-----|---2---2--2---2------|
D|----------------------|-----------------2---|---------------------|
A|2----------------2--2-|-0-------------------|---------------------|
e|----------------------|-------------------0-|-1--------------1--1-|

E|---------0------------|
B|-----7-------7--------|
G|-------0--------0---0-|
D|---5-------5------5---|
A|----------------------|
e|-0--------------------|

E|---------0------------|---------0------------|--------0------------|
B|-----3--------3-------|-----3-------3--------|-----0------0--------|
G|---0---0---0---0------|---0---0---0---0------|---2---2--2---2------|
D|----------------------|----------------------|---------------------|etc
A|-2---------------2--5-|-4---------------4-2--|---------------------|
e|----------------------|---------------------0|-1--------------1--1-|

solo

chords under electric
Bm / A2 / Fmaj7 / Em

E|--------------------------|-------------------------|
B|-----3\2------------------|-----3/5---5/7--5-5--5-5-|
G|-2/4-----2----------------|-2/4-----6---------------|
D|-----------2--2/4---5p4\2-|-------------------------|
A|--------------------------|-------------------------|
e|--------------------------|-------------------------|

|-----5---5----------5------------------------|
|-5/7---5---5\3--3-3---3\2--------------------|
|---------------------------------------------|
|--------------------------7\5--5----5--7p5\4-|
|---------------------------------------------|
|---------------------------------------------|

|--------------------5/7-7h8--7\3--------|
|---------5\3--2---5--------------3--3/5-|
|-----7\6--------2-----------------------|
|-4/9------------------------------------|
|----------------------------------------|
|----------------------------------------|

|----12----------------------------------------------------------------|
|-12----12-12/15-14-10/12-10/12-12-------------------------------------|
|----------------------------------9/11-9-9-7/9-9h10p9-7-----------7---|
|--------------------------------------------------------5-5/7-9-9---9-|
|----------------------------------------------------------------------|
|----------------------------------------------------------------------|

|-----------------------------------------|
|-3/5-5/7---------------------------------|
|---------7-7/9-6-------------------------|
|-----------------7-----------------------|
|-------------------7--7--7-5-7-7hp7--5\2-|
|-----------------------------------------|
Tap to rate this tab
# A B C D E F G H I J K L M N O P Q R S T U V W X Y Z