Song name
# A B C D E F G H I J K L M N O P Q R S T U V W X Y Z

Porno Graffiti - Hitori No Yoru tab

Standart tuning

--------------------|
--------------------|
--------------------|
--------------------|
--------------------|
-24\12--------------|slide 24 to 12 with Alternate picking)

--------------------------------------|
--------------------------------------|
-7--7--7--6--6--7--8--9--10-8-7-------|
-5--5--5--4--4--5--6--7--8--6-5-------|
--------------------------------------|
--------------------------------------|

Or

--------------------------------------|
--------------------------------------|
-7--7--7--6--6--7--8--10--11--8-7-----|
-5--5--5--4--4--5--6--8---9---6-5-----|
--------------------------------------|
--------------------------------------|

Song doesnt contain lots of guitar parts,Intro is nearly %80 of song,the others are hard
to hear,You can post comments for Edit the rest of the song or mistakes,Have fun!!!
Tap to rate this tab
# A B C D E F G H I J K L M N O P Q R S T U V W X Y Z