Song name
# A B C D E F G H I J K L M N O P Q R S T U V W X Y Z

Porno Riviste - Il Pi Buono E Il Pi Cattivo tab

 Porno Riviste - Il pił buono e il pił cattivo
 
 Standard tuning

 E-mail: Gio.friday17@hotmail.it

 
 x - nota stoppata
 ~ - vibrato
 b - bend (esempio: 9b10 ovvero "bendare" sul 9 finchč non suona come il 10) 
 r - release
 s - slide/glissato
 h - hammer on
 p - pull off
 (n) - nota fantasma





 Intro
 
 1°Guitar
 e|----------------------------------------------4-5p4h5p4h5p4--|
 B|-----------5-6-5-5-5--5-6-5-6-5--3-5-3-5-3--5----------------|
 G|-------------------------------------------------------------|
 D|-------------------------------------------------------------|
 A|-------------------------------------------------------------|
 E|-------------------------------------------------------------|

 2°Guitar
 e|-------------------------------------------------------------|
 B|-------------------------------------------------------------|
 G|-------------------------------------------------------------|
 D|-----------7-7-7-7-7-7-7-7-7-7-7-7-7-7-7-7-7-7-7-7-7-7-7-7-7-|
 A|-----------7-7-7-7-7-7-7-7-7-7-7-7-7-7-7-7-7-7-7-7-7-7-7-7-7-|
 E|--ss19sss5-5-5-5-5-5-5-5-5-5-5-5-5-5-5-5-5-5-5-5-5-5-5-5-5-5-|

 
 1°Guitar
 e|-------------------------------------4-5p4h5p4---------------|
 B|--5-6-5-5-5--5-6-5-6-5--3-5-3-5-3--5-------------------------|
 G|-------------------------------------------------------------|
 D|-------------------------------------------------------------|
 A|-------------------------------------------------------------|
 E|-------------------------------------------------------------|

 2°Guitar
 e|-------------------------------------------------------------|
 B|-------------------------------------------------------------|
 G|-------------------------------------------------------------|
 D|--7-7-7-7-7-7-7-7-7-7-7-7-7-7-7-7-7-7-7-7-7-7-7-7-7-7--------|
 A|--7-7-7-7-7-7-7-7-7-7-7-7-7-7-7-7-7-7-7-7-7-7-7-7-7-7--------|
 E|--5-5-5-5-5-5-5-5-5-5-5-5-5-5-5-5-5-5-5-5-5-5-5-5-5-5--------|



 
 Versi x2

 e|------------------------------------------------------------------|
 B|------------------------------------------------------------------|
 G|-----------------7-7-7-7-7-7-7-7-5-5-5-5-5-5-5-5------------------|
 D|-7-7-7-7-7-7-7-7-7-7-7-7-7-7-7-7-5-5-5-5-5-5-5-5-5-5-5-5-5-5-5-5--|
 A|-7-7-7-7-7-7-7-7-5-5-5-5-5-5-5-5-3-3-3-3-3-3-3-3-5-5-5-5-5-5-5-5--|
 E|-5-5-5-5-5-5-5-5---------------------------------3-3-3-3-3-3-3-3--|


 
 
 Ritornello x2
 
 e|------------------------------------------------------------------|
 B|------------------------------------------------------------------|
 G|------------------------------------------------------------------|
 D|-7-7-7-7-7-7-7-7-3-3-3-3-3-3-3-3-5-5-5-5-5-5-5-5-7-7-7-7-7-7-7-7--|
 A|-7-7-7-7-7-7-7-7-3-3-3-3-3-3-3-3-5-5-5-5-5-5-5-5-7-7-7-7-7-7-7-7--|
 E|-5-5-5-5-5-5-5-5-1-1-1-1-1-1-1-1-3-3-3-3-3-3-3-3-5-5-5-5-5-5-5-5--|




 Intro x2

 1°Guitar
 e|-------------------------------------4-5p4h5p4---------------|
 B|--5-6-5-5-5--5-6-5-6-5--3-5-3-5-3--5-------------------------|
 G|-------------------------------------------------------------|
 D|-------------------------------------------------------------|
 A|-------------------------------------------------------------|
 E|-------------------------------------------------------------|
                                                                 
 2°Guitar                                                        
 e|-------------------------------------------------------------|
 B|-------------------------------------------------------------|
 G|-------------------------------------------------------------|
 D|--7-7-7-7-7-7-7-7-7-7-7-7-7-7-7-7-7-7-7-7-7-7-7-7-7-7--------|
 A|--7-7-7-7-7-7-7-7-7-7-7-7-7-7-7-7-7-7-7-7-7-7-7-7-7-7--------|
 E|--5-5-5-5-5-5-5-5-5-5-5-5-5-5-5-5-5-5-5-5-5-5-5-5-5-5--------|




 Versi

 e|--4~--------------------------------------------------------------|
 B|------------------------------------------------------------------|
 G|-----------------7-7-7-7-7-7-7-7-5-5-5-5-5-5-5-5------------------|
 D|-----------------7-7-7-7-7-7-7-7-5-5-5-5-5-5-5-5-5-5-5-5-5-5-5-5--|
 A|-----------------5-5-5-5-5-5-5-5-3-3-3-3-3-3-3-3-5-5-5-5-5-5-5-5--|
 E|-------------------------------------------------3-3-3-3-3-3-3-3--| 

 e|------------------------------------------------------------------|
 B|------------------------------------------------------------------|
 G|-----------------7-7-7-7-7-7-7-7-5-5-5-5-5-5-5-5------------------|
 D|-7-7-7-7-7-7-7-7-7-7-7-7-7-7-7-7-5-5-5-5-5-5-5-5-5--5--5--5--5--5-|
 A|-7-7-7-7-7-7-7-7-5-5-5-5-5-5-5-5-3-3-3-3-3-3-3-3-5--5--5--5--5--5-|
 E|-5-5-5-5-5-5-5-5---------------------------------3--3--3--3--3--3-|




 Ritornello x2

 e|------------------------------------------------------------------|
 B|------------------------------------------------------------------|
 G|------------------------------------------------------------------|
 D|-7-7-7-7-7-7-7-7-3-3-3-3-3-3-3-3-5-5-5-5-5-5-5-5-7-7-7-7-7-7-7-7--|
 A|-7-7-7-7-7-7-7-7-3-3-3-3-3-3-3-3-5-5-5-5-5-5-5-5-7-7-7-7-7-7-7-7--|
 E|-5-5-5-5-5-5-5-5-1-1-1-1-1-1-1-1-3-3-3-3-3-3-3-3-5-5-5-5-5-5-5-5--|




 La mia mente che vola...

 e|---------------------------|
 B|---------------------------|
 G|--------7-7-7-9-9-9-9-9-9--|
 D|--7-7-7-7-7-7-9-9-9-9-9-9--|
 A|--7-7-7-5-5-5-7-7-7-7-7-7--|
 E|--5-5-5--------------------|

 e|-------------------------------------------|
 B|-------------------------------------------|
 G|--9-9-9-9-10-10-10-10-12-12-12-12-9-9-9-9--| x3
 D|--9-9-9-9-10-10-10-10-12-12-12-12-9-9-9-9--|
 A|--7-7-7-7-8--8--8--8--10-10-10-10-7-7-7-7--|
 E|-------------------------------------------|

 e|-------------------------------------------|
 B|-------------------------------------------|
 G|--9-9-9-9-10-10-10-10-12-12-12-12--9--9----|
 D|--9-9-9-9-10-10-10-10-12-12-12-12--9--9----|
 A|--7-7-7-7-8--8--8--8--10-10-10-10--7--7----|
 E|-------------------------------------------|




 Interlude
                             
 1°Guitar                    consiglio di bendare verso il basso
 e|---------------------------------------------------------|
 B|---------------------------------------------------------|
 G|--------------9~-----------------------------------------|
 D|-----------------------------5-5s7~--7-9b10r9b10r9-10-9~-|
 A|---------------------------------------------------------|
 E|---------------------------------------------------------|

 e|---------------------------------------------------------|
 B|---------------------------------------------------------|
 G|---------------------------------------------------------|
 D|---5-(7)s9-7-5-5s7~-sss1sss7-----------------------------|
 A|---------------------------------------------------------|
 E|---------------------------------------------------------|
 
 2°Guitar
 e|--------------------------------|
 B|--------------------------------|
 G|---2-----2----------------------|x4
 D|------------------3--------5----|
 A|-0---0-0---0----3---3----5---5--|
 E|--------------1--------3--------|
 

 1°Guitar
 e|-------------------------------------|
 B|-----10-------10--------6--------8---|
 G|---9----9---9----9----5---5----7---7-|x4
 D|-7--------7---------3--------5-------|
 A|-------------------------------------|
 E|-------------------------------------| 

 2°Guitar
 e|--------------------------------|
 B|--------------------------------|
 G|---2-----2----------------------|x4
 D|------------------3--------5----|
 A|-0---0-0---0----3---3----5---5--|
 E|--------------1--------3--------|




 Ripresa

 e|-------------------------------------------|
 B|-------------------------------------------|
 G|------------7---5--------------------------|
 D|--7-----7---7---5---7-----7-7-7-7-7-7-7-7--|
 A|--7-----7---5---3---7-----7-7-7-7-7-7-7-7--|
 E|--5-----5-----------5-----5-5-5-5-5-5-5-5--| 




 Versi x2

 e|------------------------------------------------------------------|
 B|------------------------------------------------------------------|
 G|-----------------7-7-7-7-7-7-7-7-5-5-5-5-5-5-5-5------------------|
 D|-7-7-7-7-7-7-7-7-7-7-7-7-7-7-7-7-5-5-5-5-5-5-5-5-5-5-5-5-5-5-5-5--|
 A|-7-7-7-7-7-7-7-7-5-5-5-5-5-5-5-5-3-3-3-3-3-3-3-3-5-5-5-5-5-5-5-5--|
 E|-5-5-5-5-5-5-5-5---------------------------------3-3-3-3-3-3-3-3--|

 


 Ritornello x2

 e|------------------------------------------------------------------|
 B|------------------------------------------------------------------|
 G|------------------------------------------------------------------|
 D|-7-7-7-7-7-7-7-7-3-3-3-3-3-3-3-3-5-5-5-5-5-5-5-5-7-7-7-7-7-7-7-7--|
 A|-7-7-7-7-7-7-7-7-3-3-3-3-3-3-3-3-5-5-5-5-5-5-5-5-7-7-7-7-7-7-7-7--|
 E|-5-5-5-5-5-5-5-5-1-1-1-1-1-1-1-1-3-3-3-3-3-3-3-3-5-5-5-5-5-5-5-5--|




 La mia mente che vola...

 e|---------------------------|
 B|---------------------------|
 G|--------7-7-7-9-9-9-9-9-9--|
 D|--7-7-7-7-7-7-9-9-9-9-9-9--|
 A|--7-7-7-5-5-5-7-7-7-7-7-7--|
 E|--5-5-5--------------------|

 e|-------------------------------------------|
 B|-------------------------------------------|
 G|--9-9-9-9-10-10-10-10-12-12-12-12-9-9-9-9--| x3
 D|--9-9-9-9-10-10-10-10-12-12-12-12-9-9-9-9--|
 A|--7-7-7-7-8--8--8--8--10-10-10-10-7-7-7-7--|
 E|-------------------------------------------|

 e|-------------------------------------------|
 B|-------------------------------------------|
 G|--9-9-9-9-10-10-10-10-12-12-12-12--9--9----|
 D|--9-9-9-9-10-10-10-10-12-12-12-12--9--9----|
 A|--7-7-7-7-8--8--8--8--10-10-10-10--7--7----|
 E|-------------------------------------------|

Tap to rate this tab
# A B C D E F G H I J K L M N O P Q R S T U V W X Y Z