Song name
# A B C D E F G H I J K L M N O P Q R S T U V W X Y Z

Porno Riviste - In Mutande Da Te tab

Questa è la tab di "In Mutande Da Te" delle Pornoriviste: è la mia seconda tab, dovrebbe 
tutta giusta. Suonatela
sulla canzone per capire meglio il tempo. Sum41 rules! ------ Sum41Paul

Difficoltà: ** su *****

INTRO x 3

e |----------------|----------------|------------------------|----------------|
B |----------------|----------------|------------------------|----------------|
G |7-7-7-7-7-7-7-7-|8-8-8-8-8-8-8-8-|10-10-10-10-10-10-10-10-|8-8-8-8-8-8-8-8-|
D |8-x-x-x-x-x-x-x-|8-x-x-x-x-x-x-x-|8--x--x--x--x--x--x--x--|8-x-x-x-x-x-x-x-|
A |----------------|----------------|------------------------|----------------|
E |----------------|----------------|------------------------|----------------|

poi cambia il finale

e |----------------|----------------|------------------------|----|
B |----------------|----------------|------------------------|----|
G |7-7-7-7-7-7-7-7-|8-8-8-8-8-8-8-8-|10-10-10-10-10-10-10-10-|-8--|
D |8-x-x-x-x-x-x-x-|8-x-x-x-x-x-x-x-|8--x--x--x--x--x--x--x--|-8--|
A |----------------|----------------|------------------------|----|
E |----------------|----------------|------------------------|----|

STROFA

e |----------------|------------------------|----------------|----------------|
B |----------------|------------------------|----------------|----------------|
G |----------------|10-10-10-10-10-10-10-10-|8-8-8-8-8-8-8-8-|----------------|
D |8-8-8-8-8-8-8-8-|10-10-10-10-10-10-10-10-|8-8-8-8-8-8-8-8-|8-8-8-8-8-8-8-8-|
A |8-8-8-8-8-8-8-8-|8--8--8--8--8--8--8--8--|6-6-6-6-6-6-6-6-|8-8-8-8-8-8-8-8-|
E |6-6-6-6-6-6-6-6-|------------------------|----------------|6-6-6-6-6-6-6-6-|

  |1. Stiamo bus   | sando                  | in mutande da  | te             |
  |2. Accendi il   | fuoco                  | indovina chi   | c'è            |

PONTE                                                                FINALE ALTERNATO 
suona alla fine del ponte)

e |----------------|------------------------|                        e |------------------------|
B |----------------|------------------------|                        B |------------------------|
G |----------------|10-10-10-10-10-10-10-10-|                        G |10-10-10-10-10-10-10-10-|
D |8-8-8-8-8-8-8-8-|10-10-10-10-10-10-10-10-|                        D |10-10-10-10-10-10-10-10-|
A |8-8-8-8-8-8-8-8-|8--8--8--8--8--8--8--8--|                        A |8--8--8--8--8--8--8--8--|
E |6-6-6-6-6-6-6-6-|------------------------|                        E |------------------------|

  |1. Niente più   | accappatoio più        |
  |2. Niente       | guanti di lana più     |
  |3. Niente       | calze di cuoio         |----------------------->  |finchè           
      |

PAUSA (qua c'è una pausa dove non suona nessuno strumento: dopo il ponte del basso la 
riattacca)

  In mutande da te

PONTE BASSO

STROFA

e |----------------|------------------------|----------------|----------------|
B |----------------|------------------------|----------------|----------------|
G |----------------|10-10-10-10-10-10-10-10-|8-8-8-8-8-8-8-8-|----------------|
D |8-8-8-8-8-8-8-8-|10-10-10-10-10-10-10-10-|8-8-8-8-8-8-8-8-|8-8-8-8-8-8-8-8-|
A |8-8-8-8-8-8-8-8-|8--8--8--8--8--8--8--8--|6-6-6-6-6-6-6-6-|8-8-8-8-8-8-8-8-|
E |6-6-6-6-6-6-6-6-|------------------------|----------------|6-6-6-6-6-6-6-6-|

  |1. Come una     | volta                  | io non cambio  | finchè         |
  |2. Sotto   il   | cappotto               | indovina chi   | c'è            |

PONTE                                                                FINALE ALTERNATO 
suona alla fine del ponte)

e |----------------|------------------------|                        e |------------------------|
B |----------------|------------------------|                        B |------------------------|
G |----------------|10-10-10-10-10-10-10-10-|                        G |10-10-10-10-10-10-10-10-|
D |8-8-8-8-8-8-8-8-|10-10-10-10-10-10-10-10-|                        D |10-10-10-10-10-10-10-10-|
A |8-8-8-8-8-8-8-8-|8--8--8--8--8--8--8--8--|                        A |8--8--8--8--8--8--8--8--|
E |6-6-6-6-6-6-6-6-|------------------------|                        E |------------------------|

  |1. Niente più   | accappatoio più        |
  |2. Niente       | guanti di lana più     |
  |3. Niente       | calze di cuoio         |----------------------->  |finchè           
      |

RITORNELLO (N.B. La seconda volta non si suona l'ultima misura di La, ma si parte 
con l'assolo)
e |----------------|----------------|------------------------|----------------|
B |----------------|----------------|------------------------|----------------|
G |----------------|8-8-8-8-8-8-8-8-|10-10-10-10-10-10-10-10-|----------------|
D |8-8-8-8-8-8-8-8-|8-8-8-8-8-8-8-8-|10-10-10-10-10-10-10-10-|8-8-8-8-8-8-8-8-|
A |8-8-8-8-8-8-8-8-|6-6-6-6-6-6-6-6-|8--8--8--8--8--8--8--8--|8-8-8-8-8-8-8-8-|
E |6-6-6-6-6-6-6-6-|----------------|------------------------|6-6-6-6-6-6-6-6-|

  |1. In mutande da| in mutande da  | in mutande da          | te, uo uo uo   |
  |2. In mutande da| in mutande da  | in mutande da          |

ASSOLO x 4

e |-------------------------------------------------------|
B |-------------------------------------------------------|
G |7----7---8---7---8---10---8---7---8---7---5---7---5---7|
D |--8----------------------------------------------------|
A |-------------------------------------------------------|
E |-------------------------------------------------------|

PONTE                                                                FINALE ALTERNATO 
suona alla fine del ponte)

e |----------------|------------------------|                        e |------------------------|
B |----------------|------------------------|                        B |------------------------|
G |----------------|10-10-10-10-10-10-10-10-|                        G |10-10-10-10-10-10-10-10-|
D |8-8-8-8-8-8-8-8-|10-10-10-10-10-10-10-10-|                        D |10-10-10-10-10-10-10-10-|
A |8-8-8-8-8-8-8-8-|8--8--8--8--8--8--8--8--|                        A |8--8--8--8--8--8--8--8--|
E |6-6-6-6-6-6-6-6-|------------------------|                        E |------------------------|

  |1. Niente più   | accappatoio più        |
  |2. Niente       | guanti di lana più     |
  |3. Niente       | calze di cuoio         |----------------------->  |finchè           
      |


e |----------------|----------------|
B |----------------|----------------|
G |----------------|----------------|
D |----------------|8-8-8-8-8-8-8-8-|
A |----------------|8-8-8-8-8-8-8-8-|
E |----------------|6-6-6-6-6-6-6-6-|

  |1. In mutande da| te             |

Sum41Paul
Tap to rate this tab
# A B C D E F G H I J K L M N O P Q R S T U V W X Y Z