Song name
# A B C D E F G H I J K L M N O P Q R S T U V W X Y Z

Porno Riviste - Luomo Del Luned tab

Author: le porno riviste
Song: l’uomo del lunedì
Album: fino alla fine
Normal tuning

Tab by Fulvio C.  fulvibus91@hotmail.it

Intro
----------------------------------------|
----------------------------------------|
----2--2--6---6-4--4----7--7--6--6-4--4-|
----2--2--6---6-4--4----7--7--6--6-4--4-|
----0--0--4---4-2--2----5--5--4--4-2--2-|
----------------------------------------|

--------------------------------------------|
--------------------------------------------|
----2--2--6---6-4--4----7--7--6--6--9--9----|
----2--2--6---6-4--4----7--7--6--6--7--7----|
----0--0--4---4-2--2----5--5--4--4--7--7----|
--------------------------------------------|


Verse
--------------------------------------------------------------------|
--------------------------------------------------------------------|
----2---2-2-2-2-2-/-4---4-4-4-4-4-/-7---7-7-7-7-7-/-9---9-9-9-9-9-\-|
----2---2-2-2-2-2-/-4---4-4-4-4-4-/-7---7-7-7-7-7-/-9---9-9-9-9-9-\-|
----0---0-0-0-0-0-/-2---2-4-2-4-2-/-5---5-5-5-5-5-/-7---7-7-7-7-7-\-|
--------------------------------------------------------------------|
Chorus
-------------------------------------------------------------------------------------------------|
-------------------------------------------------------------------------------------------------|
----2-----9-----4-----7-----2-----9-----4-----7-----9-----2-----4-----7-----9-----4-----2-----2--|
----2-----9-----4-----7-----2-----9-----4-----7-----9-----2-----4-----7-----9-----4-----2-----2--|
----0-----7-----2-----5-----0-----7-----2-----5-----7-----0-----2-----5-----7-----2-----0-----0--|
-------------------------------------------------------------------------------------------------|


Song structure:
intro
verse
chorus
intro
verse
chorus
verse
Tap to rate this tab
 
# A B C D E F G H I J K L M N O P Q R S T U V W X Y Z