Song name
# A B C D E F G H I J K L M N O P Q R S T U V W X Y Z

Pornomotora - No C tab

Help us improve GuitareTab! Take a short survey!
Otraves sako esta vaina ojala me ayuden  y ojala les ayude
cualquier duda o inquietud i am daniel (dcx63@hotmail.com)
-XD no soy pefcto a si que uds perdonaran la cambonada XD-


vemoss

----intro---


primer verso de guirtarra entra en::

|-------------------------|
|-------------------------|
|-------------------------|
|-4444-2222--77-/-9-------|
|-4444-2222--77-/-9-------|
|-2222-0000--55-/-7-------|
  yo no soporto..

(el garabato (/)quiere decir que lo arrastre rapidamente 1 tono)

|-------------------------------------------------------------------------|
|-------------------------------------------------------------------------|
|-------------------------------------------------------------------------|
|-44------------------------------44--------------------77-/-44-----------|
|-44------------------------------44--------------------77-/-44-----------|
|-22------------------------------22--------------------55-/-22-----------|
  voy a invitarte al salon de los exesos y los placeres brillntes
y asi con las siguientyes frases

.:.chorus.:.

|-----------------------------|
|-----------------------------|
|-----------------------------|
|-4444--2222--9999--7777------|
|-4444--2222--9999--7777------|
|-2222--0000--7777--5555------|
voooooy hacerte una invitacion muy .....


y al final (en acustica)

|------------------------------------------|
|------------------------------------------|
|------------------------------------------|
|-444-4444--22-2222--/-99-9999-/-77-777----|
|-444-4444--22-2222--/-99-9999-/-77-777----|  (x2)
|-222-2222--00-0000--/-77-7777-/-55-555----|

vemos ojala les gusta y avisan cualquier cosa
Related for No C tab