Song name
# A B C D E F G H I J K L M N O P Q R S T U V W X Y Z

Port Blue - Base Jumping tab

-------------------------------------------------------------------------------
			     Base Jumping - Port Blue
-------------------------------------------------------------------------------
Tabbed by: RabbitGrenade

Tuning: Standard

This is a tab for the synthesised part after Audrey Hepburn speaks and at other 
intervals in the song :)

Port Blue: http://www.myspace.com/portblue

Port Blue is Adam Young also known as Owl City's Ambient and easy listening side project 
devoted purely to the music and nothing but the music.


e|--------------------------------7-6----------------------------------------|
B|--9-7---9-7-------------------7-----7--------------------------------------|
G|8-----8-----6-8-----6-----6-8----------------------------------------------|
D|----------------6-9---8-9--------------------------------------------------|
A|---------------------------------------------------------------------------|
E|---------------------------------------------------------------------------|


************************************

| /   slide up
| \   slide down
| h   hammer-on
| p   pull-off
| ~   vibrato
| +   harmonic
| x   Mute note
| b   Bend
| pb  Pre-bend
| br  Bend release
| pbr Pre-bend release
| brb Bend release bend

************************************
Tap to rate this tab
 
# A B C D E F G H I J K L M N O P Q R S T U V W X Y Z