Song name
# A B C D E F G H I J K L M N O P Q R S T U V W X Y Z

Port Obrien - I Woke Up Today tab

   
"I Woke Up Today" by Port O'brien

L - tied note

standard tuning (eBGDAE)

This is the main guitar riff of the song

  
----------------0--------|----------------0--------|------------------------|
-------3-----------3-----|-------3-----------3-----|------------------------|
-----------2----------2--|-----------2----------2--|-------0--------2----0--|
--3----------3-----------|--3----------3-----------|-----------3------------|
-------------------------|-------------------------|--1----------1----------|
-------------------------|-------------------------|------------------------|
 
 

------------------------|----------------0--------|----------------0--------|
----------1-1-1-1-1-----|-------3-----------3-----|-------3-----------3-----|
L----0---------------2--|-----------2----------2--|-----------2----------2--|
------------------------|--3----------3-----------|--3----------3-----------|
------------------------|-------------------------|-------------------------|
   -----------------------|-------------------------|-------------------------|
 
here comes the 
first variation of
the riff:
                                
-----|-----|------------------------|------------------------|
-----|-----|------------------------|---------------1--------|
-----|-----|-------0--------2----0--|--L----0-------------2--|
-----|-----|-----------3------------|------------------------|
-----|-----|--1----------1----------|------------1-----1-----|
-----|-----|------------------------|------------------------|
 
 
 
----------------0--------|----------------0--------|------------------------|
-------3-----------3-----|-------3-----------3-----|------------------------|
-----------2----------2--|-----------2----------2--|-------0--------2----0--|
--3----------3-----------|--3----------3-----------|-----------3------------|
-------------------------|-------------------------|--1----------1----------|
-------------------------|-------------------------|------------------------|
 
 
  
------------------------||
---------------1--------||
--L----0-------------2--||
------------------------||
------------1-----1-----||
------------------------||


 
 

 
 
Tap to rate this tab
# A B C D E F G H I J K L M N O P Q R S T U V W X Y Z