Song name
# A B C D E F G H I J K L M N O P Q R S T U V W X Y Z

Port Obrien - The Whiskey Song tab

Standard Tuning
If there are any concerns, email me at goldej10@highpoint.edu

e|-----------------------------------------------|
B|-1-3-3/5--5---3-3/1-3-1-----1-----1-3-3/5--5--8|
G|-------------------------2-----2---------------|
D|-----------------------------------------------|
A|-----------------------------------------------|
E|-----------------------------------------------|

e|-----------------------------------------------|
B|-5-3-5-----------------------------------------|
G|-----------------------------------------------|
D|-----------------------------------------------|
A|-----------------------------------------------|
E|-----------------------------------------------|

e|-----------------------------------------------|
B|-1-3-3/5--5---3-1-3-1-----1-----1-3-3/5--5-----|
G|-----------------------2-----2-----------------|
D|-----------------------------------------------|
A|-----------------------------------------------|
E|-----------------------------------------------|

e|-----------------------------------------------|
B|-3-1-3p1---------------------------------------|
G|---------2-------------------------------------|
D|-----------------------------------------------|
A|-----------------------------------------------|
E|-----------------------------------------------|

Repeat this pattern for every verse.  At the start of the second verse another guitar
starts playing chords.  It sounds like a C chord at the start.  After that I can't tell
what they are playing, but I honestly think it's just a C chord the entire time.  I 
think that there are 2 different guitars, 1 playing the chords and the other playing what I've
tabbed here, but I can't guarantee it.
Tap to rate this tab
 
# A B C D E F G H I J K L M N O P Q R S T U V W X Y Z