Song name
# A B C D E F G H I J K L M N O P Q R S T U V W X Y Z

Port Obrien - Tree Bones tab

-------------------------------------------------------------------------------
			     Tree Bones - Port O'brien
-------------------------------------------------------------------------------
Tabbed by: krausmeistr
Email:     http://profile.ultimate-guitar.com/krausmeistr/



Tuning:Standard



Chords used:

Em    022000
G     320033
Gadd4 32001x


Intro:

e|-------7--------7--10--7-------------------------7--------7--10--7------7-----|
B|-8/10-----8/10------------10--8------------8/10-----8/10------------10--------|
G|-----------------------------------7-7----------------------------------------|
D|------------------------------------------------------------------------------|
A|------------------------------------------------------------------------------|
E|------------------------------------------------------------------------------|


e|-------7--------7--10--7-------------------------7--------7--10--7------------|
B|-8/10-----8/10------------10--8------------8/10-----8/10------------10--8-----|
G|----------------------------------7-7-----------------------------------------|
D|------------------------------------------------------------------------------|
A|------------------------------------------------------------------------------|
E|------------------------------------------------------------------------------|



Chords:

Em
Dressed up with my sister
            G
I was a bat she was a fly
Em
Now were a little bigger
                 G
Still we have to cry
Em
Pine by sea, my namesake
               G
Soon we'll rot away
Em
Watch the beatles eat bark
           G
On another day



Part A:

e|------------------------------------|
B|------------------------------------|
G|-9-9-12---9-9-12---7-7-7------------|
D|-x-x--x---x-x--x---x-x-x----7-5-5---|
A|-7-7-10---7-7-10---5-5-5----x-x-x---|
E|----------------------------5-3-3---|


Mama, we'll no longer be
On this land by the sea
Push away, I beg and plead
We'll no longer come with thee



Part B:

Em
Tree bones will die alone
    G
and our own bones will find a home



Outro:

|Em      |G       |
|Em      |G       |
|Em      |Gadd4   |Gadd4   |



e|-0-0-3----0-0-3----0-0-x--------------|
B|-0-0-3----0-0-3----0-0-1--------------|
G|-0-0-0----0-0-0----0-0-0--strum it----|
D|-2-2-0----2-2-0----2-2-0--then repeat-|
A|-2-2-2----2-2-2----2-2-2--------------|
E|-0-0-3----0-0-3----0-0-3--------------|



************************************

| /   slide up
| \   slide down
| h   hammer-on
| p   pull-off
| ~   vibrato
| +   harmonic
| x   Mute note
| b   Bend
| pb  Pre-bend
| br  Bend release
| pbr Pre-bend release
| brb Bend release bend

************************************
Tap to rate this tab
 
# A B C D E F G H I J K L M N O P Q R S T U V W X Y Z