Song name
# A B C D E F G H I J K L M N O P Q R S T U V W X Y Z

Porta - Mi Rosa Negra tab

Porta - Mi rosa negra

By: ALGEFATAL

-----0---3---2-|----------2---3--|--------3---5--|---------5---7-|
---------------|------3----------|-----3---------|-----3---------|
---------------|-----------------|--0------------|--5------------|
--4------------|--0--------------|---------------|---------------|
---------------|-----------------|---------------|---------------|
---------------|-----------------|---------------|---------------|

----------7---5-|------7---5---3--|--------3--5--|--------5---3--|
------5---------|-----------------|-----3--------|-----3---------|
----------------|-----------------|--------------|--5------------|
--7-------------|--0--------------|--0-----------|---------------|
----------------|-----------------|--------------|---------------|
----------------|-----------------|--------------|---------------|
Tap to rate this tab
 
# A B C D E F G H I J K L M N O P Q R S T U V W X Y Z