Song name
# A B C D E F G H I J K L M N O P Q R S T U V W X Y Z

Portal - Want You Gone tab

Want You Gone (Portal 2) by Jonathan Coulton

Vocal line sung by GLaDOS


Verse

------------------------------------------------------|
------------------------------------------------------|
---------6-7-6-------------------------6-7-6----------|
----7-9----------7-7---9-7-6-7-----7-9-------9-7-9-6--|
--7------------------7-----------7--------------------|
------------------------------------------------------|

-------------------------------------------------------------|
-----------------------------------------------10-7-6--------|
---------6-7-6-------------------------6-7-6----------6------|
----7-9----------7-7---9-7-6-7-----7-9-------9----------9-8--|
--7------------------7-----------7---------------------------|
-------------------------------------------------------------|

Chorus

--------------------------------------------------------------------|
------------11-9-7----------------------------11-9-7~--7-7----------|
-----------------------------------------------------------9-9-7-6--|
--------------------9-8---9-8---------------------------------------|
--8-9-11-11-------------9-----9~----8-9-11-11-----------------------|
--------------------------------------------------------------------|

Outro

-----------------|
--7-7-7----------|
--------9-9-7-6~-|
-----------------|
-----------------|
-----------------|
Tap to rate this tab
 
# A B C D E F G H I J K L M N O P Q R S T U V W X Y Z