Song name
# A B C D E F G H I J K L M N O P Q R S T U V W X Y Z

Portal - Want You Gone tab

Want You Gone - Portal 2
Jonathan Coulton
tabbed by ambient203

Tuning: Standard


This is the song in the ending credits to Portal 2. I don't like staggering
the words, but it's tough to fit them in there. I think the chorus chords
might be power chords, but either way sounds pretty good. Also, there's a
descending bassline from A to E at the end. Hope you enjoy it!



Intro: 0:00-0:05

e|------------------------------|
B|------------------------------|
G|----9---9---8-----7---7---10--|
D|--7---7---7-----7---7---7-----|
A|------------------------------|
E|------------------------------|



Verse 1: 0:06-0:15

e|--------------------------------------------------------------------------|
B|--------------------------------------------------------------------------|
G|----9----9----8------7----7----10------9-----9-----8------7----7----------|
D|--7----7----7------7----7----7-------7-----7-----7------7----7------------|
A|--------------------------------------------------------------------------|
E|--------------------------------------------------------------------------|
                                                                            |
GLaDOS                                                                      |
e|--------------------------------------------------------------------------|
B|--------------------------------------------------------------------------|
G|------------6h7--6-----------------------------6--7-6---------------------|
D|-------7--9-----------7-7---7/9--7-6-7---7-7----------9--7--9--6----------|
A|----7---------------------7------------------7----------------------------|
E|--------------------------------------------------------------------------|

  Well here we are again                   Remember when you tried to
                   It's always such a pleasure              kill me twice?

e|-----------------|
B|-----------------|
G|-----------------|
D|----------6h7-9--|
A|--7-7-7-7--------|
E|-----------------|

0:16-0:24

e|--------------------------------------------------------------------------|
B|--------------------------------------------------------------------------|
G|----9----9----8------7----7----10------9-----9-----8------7----7----6---7-|
D|--7----7----7------7----7----7-------7-----7-----7------7----7----6---6---|
A|--------------------------------------------------------------------------|
E|--------------------------------------------------------------------------|
                                                                            |
GLaDOS                                                                      |
e|--------------------------------------------------------------------------|
B|--------------------------------------------------------------------------|
G|----------6h7--6------------------------------6-7-6-------11-10-----------|
D|-----7--9-----------7-7---7/9-7-6-7-------7-9-------9---7--------11--9-8--|
A|--7---------------------7---------------7---------------------------------|
E|--------------------------------------------------------------------------|

   Oh how we laughed and laughed        Under the circumstances I've been
                  Except I wasn't laughing                  shockingly nice



Chorus 1: 0:25-0:41

    F#       C#   D#m   B      F#  C#       D#m      B

GLaDOS
e|-------------------------------------------------------|
B|---------------9/11---9--------------------------------|
G|------------------------11-----------------------------|
D|--8-9--11--11--------------------9--8-----9--8---------|
A|---------------------------------------9--------9------|
E|-------------------------------------------------------|

    You want your freedom? Take it
                             That's what I'm counting on

    F#       C#   D#m   B       D        E         A

GLaDOS
e|-------------------------------------------------------|
B|---------------9/11---9--------------------------------|
G|------------------------11---11-11-11-9-9--------------|
D|--8-9--11--11-----------------------------12-11-p9-/7--|
A|-------------------------------------------------------|
E|-------------------------------------------------------|

   I used to want you dead but now I only want you gone


Pre-Verse: 0:42-0:46

e|------------------------------|
B|------------------------------|
G|----9---9---8-----7---7---10--|
D|--7---7---7-----7---7---7-----|
A|------------------------------|
E|------------------------------|


Verse 2: 0:47-0:56

e|--------------------------------------------------------------------------|
B|--------------------------------------------------------------------------|
G|----9----9----8------7----7----10------9-----9-----8------7----7----------|
D|--7----7----7------7----7----7-------7-----7-----7------7----7------------|
A|--------------------------------------------------------------------------|
E|--------------------------------------------------------------------------|
                                                                            |
GLaDOS                                                                      |
e|--------------------------------------------------------------------------|
B|--------------------------------------------------------------------------|
G|------------6-7--6-----------------------------6--7-6---------------------|
D|-------7--9-----------7-7---7/9--7-6-7---7-7----------9--7--9--6----------|
A|----7---------------------7------------------7----------------------------|
E|--------------------------------------------------------------------------|

    She was a lot like you              Now little Caroline is in here too
          (Maybe not quite as heavy)

e|-----------------|
B|-----------------|
G|-----------------|
D|----------6h7-9--|
A|--7-7-7-7--------|
E|-----------------|

0:57-1:05

e|--------------------------------------------------------------------------|
B|--------------------------------------------------------------------------|
G|----9----9----8------7----7----10------9-----9-----8------7----7----6---7-|
D|--7----7----7------7----7----7-------7-----7-----7------7----7----6---6---|
A|--------------------------------------------------------------------------|
E|--------------------------------------------------------------------------|
                                                                            |
GLaDOS                                                                      |
e|--------------------------------------------------------------------------|
B|--------------------------------------------------------------------------|
G|----------6h7--6--------------------------6-7-6-----------11-10-----------|
D|-----7--9-----------7-7---7/9-7-6-7--------------9-7-9-7---------11--9-8--|
A|--7---------------------7---------------7---------------------------------|
E|--------------------------------------------------------------------------|

    One day they woke me up          It's such a shame the same
             So I could live forever              will never happen to you



Chorus 2: 1:06-1:22

    F#       C#   D#m   B      F#  C#       D#m      B

GLaDOS
e|-------------------------------------------------------|
B|---------------9/11---9--------------------------------|
G|------------------------11-----------------------------|
D|--8-9--11--11--------------------9--8-----9--8---------|
A|---------------------------------------9--------9------|
E|-------------------------------------------------------|

   You've got your short sad life left
                             That's what I'm counting on

    F#       C#   D#m   B       D        E         A

GLaDOS
e|-------------------------------------------------------|
B|---------------9/11---9--------------------------------|
G|------------------------11---11-11-11-9-9--------------|
D|--8-9--11--11-----------------------------12-11-p9-/7--|
A|-------------------------------------------------------|
E|-------------------------------------------------------|

   I'll let you get right to it
                             Now I only want you gone



Pre-Verse: 1:23-1:27

e|------------------------------|
B|------------------------------|
G|----9---9---8-----7---7---10--|
D|--7---7---7-----7---7---7-----|
A|------------------------------|
E|------------------------------|


Verse 3: 1:28-1:36

e|--------------------------------------------------------------------------|
B|--------------------------------------------------------------------------|
G|----9----9----8------------------------9-----9-----8------7----7----------|
D|--7----7----7------------------------7-----7-----7------7----7------------|
A|--------------------------------------------------------------------------|
E|--------------------------------------------------------------------------|
                                                                            |
GLaDOS                                                                      |
e|--------------------------------------------------------------------------|
B|--------------------------------------------------------------------------|
G|------------6-7--6-----------------------------6--7-6---------------------|
D|-------7--9-----------7-7---7/9--7-6-7---7-7----------9--7--9--6----------|
A|----7---------------------7------------------7----------------------------|
E|--------------------------------------------------------------------------|

     Goodbye my only friend               That would be funny
           Oh, did you think I meant you?         If it weren't so sad

e|-----------------|
B|-----------------|
G|-----------------|
D|----------6h7-9--|
A|--7-7-7-7--------|
E|-----------------|

1:37-1:46

e|--------------------------------------------------------------------------|
B|--------------------------------------------------------------------------|
G|----9----9----8------7----7----10------9-----9-----8------7----7----6---7-|
D|--7----7----7------7----7----7-------7-----7-----7------7----7----6---6---|
A|--------------------------------------------------------------------------|
E|--------------------------------------------------------------------------|
                                                                            |
GLaDOS                                                                      |
e|--------------------------------------------------------------------------|
B|--------------------------------------------------------------------------|
G|----------6h7--6------------------------------6-7-6-------11-10-----------|
D|--7-7---------------7-7---7/9-7-6--7------7-9-------9-7---------11--9-8---|
A|-------7----------------7---------------7---------------------------------|
E|--------------------------------------------------------------------------|

    Well you have been replaced           When I delete you maybe
               I don't need anyone now            I'll stop feeling so bad



Chorus 3: 1:47-2:05

    F#       C#   D#m   B      F#  C#       D#m      B

GLaDOS
e|-------------------------------------------------------|
B|---------------9/11---9--------------------------------|
G|------------------------11-----------------------------|
D|--8-9--11--11--------------------9--8-----9--8---------|
A|---------------------------------------9--------9------|
E|-------------------------------------------------------|

    Go make some new disaster
                           That's what I'm counting on

    F#       C#   D#m   B       D        E         A

GLaDOS
e|-------------------------------------------------------|
B|---------------9/11---9--------------------------------|
G|------------------------11---11-11-11-9-9--------------|
D|--8-9--11--11-----------------------------12-11-p9-/7--|
A|-------------------------------------------------------|
E|-------------------------------------------------------|

   You're someone else's problem now I only want you gone

    D        E         A       D        E         A


Outro: 2:06-2:20

e|-------------------------------------------------------|
B|-------------------------------------------------------|
G|--11-11-11-9-9---------------11-11-11-9-9--------------|
D|---------------12-11-p9-/7----------------12--11-------|
A|-------------------------------------------------------|
E|-------------------------------------------------------|

   Now I only want you gone   Now I only want you gone



That's it, hope you enjoyed it!
Tap to rate this tab
 
# A B C D E F G H I J K L M N O P Q R S T U V W X Y Z