Song name
# A B C D E F G H I J K L M N O P Q R S T U V W X Y Z

Portastatic - On Our Hands tab

-------------------------------------------------------------------------------
			     On Our Hands - Portastatic
-------------------------------------------------------------------------------
Tabbed by: Jeff


synth intro (tabbed for gtr)

e|-1---0--------------------|
B|---------1----------------|
G|-------------repeat-------|
D|--------------------------|
A|--------------------------|
E|--------------------------|

gtr

e|-3---0--1-----------------------------------------------------------------|
B|-----------0--------------------------------------------------------------|
G|---------------0--------repeat-4x--------------------------------------|
D|---------------------------------------------------------------------------|
A|---------------------------------------------------------------------------|
E|---------------------------------------------------------------------------|


C
Are you searching for the invention to make you rich?
People come with bags of money to your door, and it makes you sick


e|---------------------------------------------------------------------------|
B|---------------------------------------------------------------------------|
G|--5---9--1010--12-12----------------------------------------------------------|
D|----------------------------------------------------------------------|
A|--3---7--8-8---10-10---------------------------------------------------------------|
E|---------------------------------------------------------------------------|

C Em F
     
       C           Em  F
We are counting on you
We are counting on you
We are counting on you
We are counting on our hands

C
Are you searching for the words to help you explain?
You bring a mouthful up and chew, you just spit them out again


       C           Em  F
We are counting on you
We are counting on you
We are counting on you
We are counting on our hands


solo over
e|---------------------------------------------------------------------------|
B|--1-------1-----0----------0----1--0---3-----------------------------------|
G|-----0-------0----------0----0---------------------------------------------|
D|-------------0----0--3-----------------------------------------------------|
A|-------3-------------------------------------------------------------------|
E|---------------------------------------------------------------------------|



| /  slide up
| \  slide down
| h  hammer-on
| p  pull-off
| ~  vibrato
| +  harmonic
| x  Mute note
===============================================================================
Tap to rate this tab
 
# A B C D E F G H I J K L M N O P Q R S T U V W X Y Z