Song name
# A B C D E F G H I J K L M N O P Q R S T U V W X Y Z

Porter Robinson - Unison tab

Hello everyone! This is my first tab, enjoy!


E|------12--9------------5--7--5-----|
B|--10---------9--10--5-----------5--|
G|-----------------------------------|
D|-----------------------------------|
A|-----------------------------------|
E|-----------------------------------|



E|------12--9------------7--12--5--14--|
B|--10---------9--10--5----------------|
G|-------------------------------------|
D|-------------------------------------|
A|-------------------------------------|
E|-------------------------------------|



E|------12--9------------5--7--5-----|
B|--10---------9--10--5-----------5--|
G|-----------------------------------|
D|-----------------------------------|
A|-----------------------------------|
E|-----------------------------------|



E|-----------------7--5--------------|
B|--5--5--5--7--8--------------------|
G|-----------------------------------|
D|-----------------------------------|
A|-----------------------------------|
E|-----------------------------------|
Tap to rate this tab
# A B C D E F G H I J K L M N O P Q R S T U V W X Y Z