Song name
# A B C D E F G H I J K L M N O P Q R S T U V W X Y Z

Porter - Palapa tab

Meeeoow!


INTRO:

   A#m         F#   G#
e|-6-6--6-6-6--2-2--4-4-4-|
B|-6-6--6-6-6--2-2--4-4-4-|
G|-6-6--6-6-6--3-3--5-5-5-|
D|------------------------|
A|------------------------|
E|------------------------|

   A#m         Fm   F#   Fm
e|-6-6--6-6-6--1-1--2-2--1-1-|
B|-6-6--6-6-6--1-1--2-2--1-1-|
G|-6-6--6-6-6--1-1--3-3--1-1-|
D|---------------------------|
A|---------------------------|
E|---------------------------|

VERSE:

Ahí muy cerca...

   B        A#m  C#
e|-2-2-2-2--1-1--4-4-4-4-4-4-|
B|-4-4-4-4--2-2--6-6-6-6-6-6-|
G|-4-4-4-4--3-3--6-6-6-6-6-6-|
D|---------------------------|
A|---------------------------|
E|---------------------------|

Donde el horizonte...

   C#          Fm     D#m     A#m         B        A#m
e|-4-4--4-4-4--8--8---6-6-6---1-1--1-1-1--2-2-2-2--1-1--|
B|-6-6--6-6-6--9--9---7-7-7---2-2--2-2-2--4-4-4-4--2-2--|
G|-6-6--6-6-6--10-10--8-8-8---3-3--3-3-3--4-4-4-4--3-3--|
D|------------------------------------------------------|
A|------------------------------------------------------|
E|------------------------------------------------------|

CHORUS:

Te volveré a encontrar...

    F#         G#         A#m        C#
e|------------------------------------------------|
B|------------------------------------------------|
G|---3--3-3~----5--5-5~----6--6-6~----10---10-10~-|
D|------------------------------------------------|
A|------------------------------------------------|
E|--2--2-------4--4-------6--6-------9---9--------|

VERSE:

Da de ti...

   C#          Fm     D#m     A#m
e|-4-4--4-4-4--8--8---6-6-6---1-1-1-1-1-1~-|
B|-6-6--6-6-6--9--9---7-7-7---2-2-2-2-2-2~-|
G|-6-6--6-6-6--10-10--8-8-8---3-3-3-3-3-3~-|
D|-----------------------------------------|
A|-----------------------------------------|
E|-----------------------------------------|

SOLO:

e|-------------------|
B|-------------------|
G|-------------------| (Play this part a lot of times)
D|-------------------|
A|-4~---6~---9~---6~-|
E|-------------------|

e|-------------------|
B|-------------------|
G|-------------------| (x2)
D|-6~---4~---3~---4~-|
A|-------------------|
E|-------------------|

e|----|
B|----|
G|----|
D|----|
A|-4~-|
E|----|

OUTRO:

e|--------------------------------------------------|
B|--------------------------------------------------|
G|--------------------------------------------------|
D|--------------------------------------------------|
A|-1-1-1-4-4/10~-10-10------------------------------|
E|-----------------------4-4/6~-6-6--4-4/6~-6-6-4-4-|

e|---------------------------------------------------|
B|---------------------------------------------------|
G|-13-13-13-13--11-11-11-11--10-10-10-10--11-11-11~--|
D|---------------------------------------------------|
A|---------------------------------------------------|
E|---------------------------------------------------|

  A#m
e|----|
B|----|
G|----|
D|----|
A|----|
E|-6~-|


Just listen the song.
Tap to rate this tab
# A B C D E F G H I J K L M N O P Q R S T U V W X Y Z