Porthaven - This Sweet Satire tab

-------------------------------------------------------------------------------
			     This Sweet Satire - Porthaven
-------------------------------------------------------------------------------

Tabbed by: Joe Brady


Tuning: Standard

Verse


e|---------------------------------------------------------------------------|
B|---------------------------------------------------------------------------|
G|----77777777----99999999----------------77777777---------------------------|
D|----77777777----99999999----44444444----77777777---------------------------|
A|----55555555----77777777----44444444----55555555---------------------------|
E|----------------------------22222222---------------------------------------|

Pre-Chorus


e|---------------------------------------------------------------------------|
B|---------------------------------------------------------------------------|
G|----4----6--7----9---------------------------------------------------------|
D|----4----6--7----9---------------------------------------------------------|
A|----2----4--5----7---------------------------------------------------------|
E|---------------------------------------------------------------------------|

Chorus


e|---------------------------------------------------------------------------|
B|---------------------------------------------------------------------------|
G|---------------77777777----------------77777777----------------------------|
D|---77777777----77777777----77777777----77777777----77777777----44444444----|
A|---77777777----55555555----77777777----55555555----77777777----44444444----|
E|---55555555----------------55555555----------------55555555----22222222----|


e|---------------------------------------------------------------------------|
B|---------------------------------------------------------------------------|
G|----4444----66--7777----9999-----------------------------------------------|
D|----4444----66--7777----9999------7777777777-------------------------------|
A|----2222----44--5555----7777------7777777777-------------------------------|
E|----------------------------------5555555555-------------------------------|

Verse


e|---------------------------------------------------------------------------|
B|---------------------------------------------------------------------------|
G|----77777777----99999999----------------77777777---------------------------|
D|----77777777----99999999----44444444----77777777---------------------------|
A|----55555555----77777777----44444444----55555555---------------------------|
E|----------------------------22222222---------------------------------------|

Pre-Chorus


e|---------------------------------------------------------------------------|
B|---------------------------------------------------------------------------|
G|----4----6--7----9---------------------------------------------------------|
D|----4----6--7----9---------------------------------------------------------|
A|----2----4--5----7---------------------------------------------------------|
E|---------------------------------------------------------------------------|

Chorus


e|---------------------------------------------------------------------------|
B|---------------------------------------------------------------------------|
G|---------------77777777----------------77777777----------------------------|
D|---77777777----77777777----77777777----77777777----77777777----44444444----|
A|---77777777----55555555----77777777----55555555----77777777----44444444----|
E|---55555555----------------55555555----------------55555555----22222222----|


e|---------------------------------------------------------------------------|
B|---------------------------------------------------------------------------|
G|----4444----66--7777----9999-----------------------------------------------|
D|----4444----66--7777----9999------7777777777-------------------------------|
A|----2222----44--5555----7777------7777777777-------------------------------|
E|----------------------------------5555555555-------------------------------|

Bridge


e|---------------------------------------------------------------------------|
B|---------------------------------------------------------------------------|
G|------------7---------------7---------------7---------------7--------------|
D|----7-------7-------7-------7-------7-------7-------7-------7--------------|
A|----7-------5-------7-------5-------7-------5-------7-------5--------------|
E|----5---------------5---------------5---------------5----------------------|

Chorus


e|---------------------------------------------------------------------------|
B|---------------------------------------------------------------------------|
G|---------------77777777----------------77777777----------------------------|
D|---77777777----77777777----77777777----77777777----77777777----44444444----|
A|---77777777----55555555----77777777----55555555----77777777----44444444----|
E|---55555555----------------55555555----------------55555555----22222222----|


e|---------------------------------------------------------------------------|
B|---------------------------------------------------------------------------|
G|----4444----66--7777----9999-----------------------------------------------|
D|----4444----66--7777----9999------7777777777-------------------------------|
A|----2222----44--5555----7777------7777777777-------------------------------|
E|----------------------------------5555555555-------------------------------|


http://www.myspace.com/porthaven


************************************

| /   slide up
| \   slide down
| h   hammer-on
| p   pull-off
| ~   vibrato
| +   harmonic
| x   Mute note
| b   Bend
| pb  Pre-bend
| br  Bend release
| pbr Pre-bend release
| brb Bend release bend

************************************
Tap to rate this tab
 
# A B C D E F G H I J K L M N O P Q R S T U V W X Y Z