Song name
# A B C D E F G H I J K L M N O P Q R S T U V W X Y Z

Portishead - Deep Water tab

----------------------------------------------------------------------------
                       deep water-portishead
----------------------------------------------------------------------------

This song is played on a ukulele tuneD F# B D# G# but if you put a capo on the
4th fret of a guitar you get the same tuning

The struming patern is not correct.

Intro

Guitar 1 capo 4th fret
e-2--2-2--3-2---2--2-2--3-2-2--|
B-3--3-3--3-3---3--3-3--3-3-3--|
G-2--2-2--2-2---2--2-2--2-2-2--|
D-0----0--------0----0------0--|
A------------------------------|
E------------------------------|

verse

e-2--2-2--2-2---2--2-2--2-2-2---2--2-2--2-2-2---3--3-3--3-3-3-|
B-3--3-3--3-3---3--3-3--3-3-3---3--3-3--3-3-3---3--3-3--3-3-3-|
G-2--2-2--2-2---3--3-3--3-3-3---0--0-0--0-0-0---0--0-0--0-0-0-|
D-0--0-0--0-0---0--0-0--0-0-0---0--0-0--0-0-0---0--0-0--0-0-0-|
A-------------------------------------------------------------|
E-------------------------------------------------------------|

e-2--2-2--2-2---0--0-0--5-5-3-2-2--2--3-2--5-3-2--0-0-0-------|
B-3--3-3--3-3---2--2-2--2-2-2-2-3--3--3-3--3-3-3--3-3-3-------|
G-2--2-2--2-2---2--2-2--2-2-2-2-2--2--2-2--0-0-0--3-3-3-------|
D-0--0-0--0-0---2--2-2--2-2-2-2-0-------0--0-0-0--0-0-0-------|
A-------------------------------------------------------------|
E-------------------------------------------------------------|

e-2--2-2--2-2---2--2-2--2-2-2---2--2-2--2-2-2---2--3-3--3-3-3-|
B-3--3-3--3-3---3--3-3--3-3-3---3--3-3--3-3-3---3--3-3--3-3-3-|
G-2--2-2--2-2---3--3-3--3-3-3---0--0-0--0-0-0---0--0-0--0-0-0-|
D-0--0-0--0-0---0--0-0--0-0-0---0--0-0--0-0-0---0--0-0--0-0-0-|
A-------------------------------------------------------------|
E-------------------------------------------------------------|

e-2--2-2--2-2---5--5-5--5-5-5-3-2--2--3-2--2-2-2--2-2-2-------|
B-3--3-3--3-3---2--2-2--2-2-2-2-3--3--3-3--3-3-3--3-3-3-------|
G-2--2-2--2-2---2--2-2--2-2-2-2-2--2--2-2--2-2-2--3-3-3-------|
D-0--0-0--0-0---2--2-2--2-2-2-2-0-------0--0-0-0--0-0-0-------|
A-------------------------------------------------------------|
E-------------------------------------------------------------|

Chorus


e-3-3-3-3--3-3-3-3--3-3-3-3--3-3-3-3--2-2-2-2--2-2-2-2--|
B-3-3-3-3--3-3-3-3--3-3-3-3--3-3-3-3--3-3-3-3--3-3-3-3--|
G-0-0-0-0--0-0-0-0--0-0-0-0--0-0-0-0--2-2-2-2--3-3-3-3--|
D-0-0-0-0--0-0-0-0--0-0-0-0--0-0-0-0--0-0-0-0--0-0-0-0--|
A-------------------------------------------------------|
E-------------------------------------------------------|

e-2-2-3-2--5-3-2-5-|
B-3-3-3-3--3-3-3-3-|
G-0-0-0-0--0-0-0-0-|
D-0-0-0-0--0-0-0-0-|
A------------------|
E------------------|


Verse 2

e-2--2-3--2-2---2--2-2--2-2-2---2--3-2--2-2-2---2--3-3--3-3-2-|
B-3--3-3--3-3---3--3-3--3-3-3---3--3-3--3-3-3---3--3-3--3-3-3-|
G-2--2-2--2-2---3--3-3--3-3-3---0--0-0--0-0-0---0--0-0--0-0-0-|
D-0--0-0--0-0---0--0-0--0-0-0---0--0-0--0-0-0---0--0-0--0-0-0-|
A-------------------------------------------------------------|
E-------------------------------------------------------------|

e-2--2-2--3-2---5--5-5--3-3-2-2-0---2------2--5--7--9--10------|
B-3--3-3--3-3---2--2-2--2-2-2-2-2--------3---------------------|
G-2--2-2--2-2---2--2-2--2-2-2-2-2------2-----------------------|
D-0--0-0--0-0---2--2-2--2-2-2-2-2---0--------------------------|
A--------------------------------------------------------------|
E--------------------------------------------------------------|
Tap to rate this tab
# A B C D E F G H I J K L M N O P Q R S T U V W X Y Z