Guitaretab - guitar tabs
Song name
# A B C D E F G H I J K L M N O P Q R S T U V W X Y Z

Portishead - Machine Gun tab

----------------------------------------------------------------------------
                            machine gun
----------------------------------------------------------------------------

Standard  tuning

there is no guitar in this song so i tabbed the "machine gun" bit and th synth at the end.

"machine gun" bit

Guitar 1
e-----------------|
B-----------------|
G-6-6-6-6-6-6-6-6-|
D-6-6-6-6-6-6-6-6-|
A-4-4-4-4-4-4-4-4-|
E-----------------|

There is a quiet bass part that runs through most of the song. Its hard to hear and this 
the closest i got.
[ Tab from: http://www.guitaretab.com/p/portishead/171600.html ]
G--------------------------|
D--------11-11-------11-11-|
A--------------------------|
E-9--9--9--9--9--9--9--9---|

Synth at the end

guitar 2 (sustain notes)

e-9-11-12---9-12-11---12-11-9------9----|
B---------------------------10-----9----|
G---------------------------9------9----|
D---------------------------11-----11---|
A---------------------------0-----------|
E----------------------------------9----|

e-9-11-12---9-12-11---12-11-9------9----|
B---------------------------10-----9----|
G---------------------------9------9----|
D---------------------------11-----11---|
A---------------------------0-----------|
E----------------------------------9----|

The End
Related for Machine Gun tab
Advertisement will be closed in 10 seconds