Song name
# A B C D E F G H I J K L M N O P Q R S T U V W X Y Z

Portishead - Seven Months tab

|---------------------------|
| Portishead - Seven Months |
|                           |
| Tabbed by JakTheStripper9 |
|---------------------------|

Standard Tuning

Dist. w/ Tremelo

e|---------------------------------|---------------------------------|
B|---------------------------------|---------------------------------|
G|-------3-------------------------|---------------------------------|
D|---------------------------------|---------------------------------|
A|-1-------------------------------|---------------------------------|
E|-----------------------------3-2-|-0-------------------------------|
 |                                 |                                 |
 | 1   &   2   &   3   &   4   &   | 1   &   2   &   3   &   4   &   |


e|---------------------------------|---------------------------------|
B|---------------------------------|---------------------------------|
G|-------6-------------------------|---------------------------------|
D|---------------------------------|---------------------------------|
A|-6-------------------------------|---------------------------------|
E|-----------------------------3-2-|-0-------------------------------|
 |                                 |                                 |
 | 1   &   2   &   3   &   4   &   | 1   &   2   &   3   &   4   &   |


e|-----6---------------------------|---------------------------------|
B|---------------------------------|---------------------------------|
G|-8-------------------------------|---------------------------------|
D|---------------------------------|---------------------------------|
A|---------------------------------|---------------------------------|
E|-----------------------------3-2-|-0-------------------------------|
 |                                 |                                 |
 | 1   &   2   &   3   &   4   &   | 1   &   2   &   3   &   4   &   |


e|----10---------------------------|---------------------------------|
B|---------------------------------|---------------------------------|
G|-8-------------------------------|---------------------------------|
D|---------------------------------|---------------------------------|
A|---------------------------------|---------------------------------|
E|-----------------------------3-2-|-0-------------------------------|
 |                                 |                                 |
 | 1   &   2   &   3   &   4   &   | 1   &   2   &   3   &   4   &   |


e|---------------------------------|---------------------------------|
B|-----5---------------------------|---------------------------------|
G|---------------------------------|---------------------------------|
D|-7-------------------------------|---------------------------------|
A|---------------------------------|---------------------------------|
E|-----------------------------8-7-|-4-------------------------------|
 |                                 |                                 |
 | 1   &   2   &   3   &   4   &   | 1   &   2   &   3   &   4   &   |


e|---------------------------------|---------------------------------|
B|-----5---------------------------|---------------------------------|
G|---------------------------------|---------------------------------|
D|-7-------------------------------|---------------------------------|
A|---------------------------------|---------------------------------|
E|-----------------------------8-7-|-7-------------------------------|
 |                                 |                                 |
 | 1   &   2   &   3   &   4   &   | 1   &   2   &   3   &   4   &   |


e|---------------------------------|---------------------------------|
B|-----9---------------------------|---------------------------------|
G|---------------------------------|---------------------------------|
D|-7-------------------------------|---------------------------------|
A|---------------------------------|---------------------------------|
E|-----------------------------8-7-|-4-------------------------------|
 |                                 |                                 |
 | 1   &   2   &   3   &   4   &   | 1   &   2   &   3   &   4   &   |


e|---------------------------------|---------------------------------|
B|-----5---------------------------|---------------------------------|
G|---------------------------------|---------------------------------|
D|-7-------------------------------|---------------------------------|
A|---------------------------------|---------------------------------|
E|-----------------------------8-7-|-7-------------------------------|
 |                                 |                                 |
 | 1   &   2   &   3   &   4   &   | 1   &   2   &   3   &   4   &   |
Tap to rate this tab
 
# A B C D E F G H I J K L M N O P Q R S T U V W X Y Z