Song name
# A B C D E F G H I J K L M N O P Q R S T U V W X Y Z

Portishead - Mysterons tab

I'm not sure if the interlude is right on,
But this is an attempt at this tab seeing as I am not able to access any of the other 
tabs of this song...


Ongoing riff:
e-------1-------2-------1-------2-|
B---------------------------------|
G-----3-------4-------3-------4---|
D---3-------4-------3-------4-----|
A-1-------2-------1-------2-------|
E---------------------------------|
Interlude
e---------1-2-1-2---------------|
B-----4-----------3-------------|
G-3-3---------------3---3-4-3---|
D---------------------3---------|
A-------------------------------|
E-------------------------------|

If you have any corrections, please feel free to comment!
Tap to rate this tab
# A B C D E F G H I J K L M N O P Q R S T U V W X Y Z