Guitaretab - guitar tabs
Song name
# A B C D E F G H I J K L M N O P Q R S T U V W X Y Z

Portishead - Sour Times tab

 ok i love this song along with alot of other portishead songs...ive played it over the 
and i think it sounds about as close to it as possible on an acoustic guitar...yu might 
able to do a bit more with some kind of pedals i imagine ....anyway...enjoy!

Intro/Chorus:
[ Tab from: http://www.guitaretab.com/p/portishead/80554.html ]
E-------------------------------------------------------|
B-------------------------------------------------------|
G----0--0--0--0-----------------------------------------|
D----8--8--8--8---7-7-7-7---6-6-6-6---------------------|
A----10-10-10-10--8-8-8-8---7-7-7-7---------------------|
E-------------------------------------------------------|


Verse:

E---------------------------------------|
B----5----------------------------------|
G----6----6----5----4-------------------|
D----6----6----5----4----6--------------|
A----4----4----3----2----6--------------|
E------------------------4--------------|  (REPEATED)
Related for Sour Times tab
Advertisement will be closed in 10 seconds