Song name
# A B C D E F G H I J K L M N O P Q R S T U V W X Y Z

Portrait - Buried Alive tab

Portrait - Buried Alive tabs
Tuning - Drop C (CGCFAD)

I wrote tabs to this song a while ago, because I really liked
this new band, and their song is amazing. Great singer, great
guitarist. Please rate, and feel free to comment ;)

Key
* --- Palm Mute
\ --- Slide Down
~ --- Let Note(s) Ring

Intro
Guitar 1
D|-------------------------------------|
A|-------------------------------------|
F|-------------------------------------|
C|--0-12-13-0-13-12-0-12-13-0-13-12----|x4
G|-------------------------------------|
C|-------------------------------------|

Guitar 2 (After Gtr 1 x2)

D|--------------------------------------|
A|--------------------------------------|
F|--------------------------------------|
C|--------------------------------------|x2
G|--------------------------------------|
C|--0-12-13-0-13-12-0-12-13-0-13-12-----|

Guitar 1
D|-----------------------------------------|
A|-----------------------------------------|
F|-----------------------------------------|
C|--0-12-13-0-13-12-0-10-12-12-10-10-13~---|x3
G|--0-12-13-0-13-12-0-10-12-12-10-10-13~---|
C|--0-12-13-0-13-12-0-10-12-12-10-10-13~---|

D|----------------------------------------------------------|
A|----------------------------------------------------------|
F|----------------------------------------------------------|
C|--0-12-13-0-13-12-0-12-13-0-13-12----12\\\-(Slide to open)|
G|--0-12-13-0-13-12-0-12-13-0-13-12----12\\\----------------|
C|--0-12-13-0-13-12-0-12-13-0-13-12----12\\\----------------|

Verse (x2)
Guitar 1
D|--------------------------------------|
A|--------------------------------------|
F|--------------------------------------|
C|--0-0-0-0-0------0--0-----------------|x3
G|--0-0-0-0-0------0--0-5-3-5\4---------|
C|--0-0-0-0-0------0--0-----------------|
    * * * *        *  *
D|-------------------------------|
A|-------------------------------|
F|-------------------------------|
C|--0-0-0-0-0--------8--8--------|
G|--0-0-0-0-0--------6--6--------|
C|--0-0-0-0-0--------------------|
    * * * *
Pre-Chorus
Guitar 1
D|----------------------------|
A|----------------------------|
F|----------------------------|
C|--0~~~------3~~-----5~------|
G|--0~~~------3~~-----5~------|
C|--0~~~------3~~-----5~------|

Chorus
Guitar 1
D|-----------------------------------------------------------|
A|------------------5-3--------------------------------------|
F|----------------------2------------------------------------|
C|--0-0--0-0--0---0--------8-8--8-8--8--8h10-10-10-10p8\\----|
G|--0-0--0-0--0---0--------8-8--8-8--8--8h10-10-10-10p8\\----|
C|--0-0--0-0--0---0--------8-8--8-8--8--8h10-10-10-10p8\\----|

D|---------------------------------------------------|
A|--------------5-3----------------------------------|
F|------------------2------------------5-----5\------|
C|--0--0-0--0--0--------8--8-8--8------5-----5\------|
G|--0--0-0--0--0--------8--8-8--8------3-----3\------|
C|--0--0-0--0--0--------8--8-8--8--0-0---0-0---------|
                                   * *   * *
D|---------------------------------------------------------------|
A|---------------------------------------------------------------|
F|--------------------------7------------------------------------|
C|--0-0--0-0--0-0--0-0--0-0----8-8--8-8--8--8h10-10-10-10p8\\----|
G|--0-0--0-0--0-0--0-0--0-0----8-8--8-8--8--8h10-10-10-10p8\\----|
C|--0-0--0-0--0-0--0-0--0-0----8-8--8-8--8--8h10-10-10-10p8\\----|
    * *  * *  * *  * *  * *
D|---------------------------------------------------|
A|--------------5-3----------------------------------|
F|------------------2------------------5-----5\------|
C|--0--0-0--0--0--------8--8-8--8------5-----5\------|
G|--0--0-0--0--0--------8--8-8--8------3-----3\------|
C|--0--0-0--0--0--------8--8-8--8--0-0---0-0---------|
                                   * *   * *
Verse #2 (x2)
Guitar 1
D|--------------------------------------|
A|--------------------------------------|
F|--------------------------------------|
C|--0-0-0-0-0------0--0-----------------|x3
G|--0-0-0-0-0------0--0-5-3-5\4---------|
C|--0-0-0-0-0------0--0-----------------|
    * * * *        *  *
D|-------------------------------|
A|-------------------------------|
F|-------------------------------|
C|--0-0-0-0-0--------8--8--------|
G|--0-0-0-0-0--------6--6--------|
C|--0-0-0-0-0--------------------|
    * * * *
Pre-Chorus #2
Guitar 1
D|----------------------------|
A|----------------------------|
F|----------------------------|
C|--0~~~------3~~-----5~------|
G|--0~~~------3~~-----5~------|
C|--0~~~------3~~-----5~------|

Chorus #2

D|-----------------------------------------------------------|
A|------------------5-3--------------------------------------|
F|----------------------2------------------------------------|
C|--0-0--0-0--0---0--------8-8--8-8--8--8h10-10-10-10p8\\----|
G|--0-0--0-0--0---0--------8-8--8-8--8--8h10-10-10-10p8\\----|
C|--0-0--0-0--0---0--------8-8--8-8--8--8h10-10-10-10p8\\----|

D|---------------------------------------------------|
A|--------------5-3----------------------------------|
F|------------------2------------------5-----5\------|
C|--0--0-0--0--0--------8--8-8--8------5-----5\------|
G|--0--0-0--0--0--------8--8-8--8------3-----3\------|
C|--0--0-0--0--0--------8--8-8--8--0-0---0-0---------|
                                   * *   * *
D|---------------------------------------------------------------|
A|---------------------------------------------------------------|
F|--------------------------7------------------------------------|
C|--0-0--0-0--0-0--0-0--0-0----8-8--8-8--8--8h10-10-10-10p8\\----|
G|--0-0--0-0--0-0--0-0--0-0----8-8--8-8--8--8h10-10-10-10p8\\----|
C|--0-0--0-0--0-0--0-0--0-0----8-8--8-8--8--8h10-10-10-10p8\\----|
    * *  * *  * *  * *  * *
D|---------------------------------------------------|
A|--------------5-3----------------------------------|
F|------------------2------------------5-----5\------|
C|--0--0-0--0--0--------8--8-8--8------5-----5\------|
G|--0--0-0--0--0--------8--8-8--8------3-----3\------|
C|--0--0-0--0--0--------8--8-8--8--0-0---0-0---------|
                                   * *   * *
Bridge
Guitar 1 (Distortion)
D|--------------------------------------|
A|--------------------------------------|
F|--------------------------------------|
C|--------------------------------------|
G|--------------------------------------|
C|--12-13-12-10-12--12-13-12-10-12------|
    *  *  *  *  *   *  *  *  *  *
D|-------------------------------------------|
A|-------------------------------------------|
F|-------------------------------------------|
C|-------------------------------------------|
G|-------------------------------------------|
C|--12-13-12-10-12--12-13-12-10-12--12-10~---|
    *  *  *  *  *   *  *  *  *  *   *  *
D|--------------------------------------|
A|--------------------------------------|
F|--------------------------------------|
C|--------------------------------------|
G|--------------------------------------|
C|--12-13-12-10-12--12-13-12-10-12------|
    *  *  *  *  *   *  *  *  *  *
Both Guitars
D|-------------------------------------------|
A|-------------------------------------------|
F|-------------------------------------------|
C|-------------------------------------------|
G|-------------------------------------------|
C|--12-13-12-10-12--12-13-12-10-12--12-10~---|

Breakdown (x2)
(Still Both Guitars)
D|--------------------------------------------|
A|--------------------------------------------|
F|--------------------------------------------|
C|--12-13-12-10-12--12-13-12-10-12--12-15~----|
G|--12-13-12-10-12--12-13-12-10-12------------|
C|--12-13-12-10-12--12-13-12-10-12------------|

D|--------------------------------------------|
A|--------------------------------------------|
F|--------------------------------------------|
C|--12-13-12-10-12--12-13-12-10-12--12p10~----|
G|--12-13-12-10-12--12-13-12-10-12------------|
C|--12-13-12-10-12--12-13-12-10-12------------|

Guitar 1
D|--------------------------------------|
A|--------------------------------------|
F|--------------------------------------|
C|--12~~~--12h15-15~~--15h17-17p13\-----|
G|--------------------------------------|
C|--------------------------------------|

Chorus #3

D|-----------------------------------------------------------|
A|------------------5-3--------------------------------------|
F|----------------------2------------------------------------|
C|--0-0--0-0--0---0--------8-8--8-8--8--8h10-10-10-10p8\\----|
G|--0-0--0-0--0---0--------8-8--8-8--8--8h10-10-10-10p8\\----|
C|--0-0--0-0--0---0--------8-8--8-8--8--8h10-10-10-10p8\\----|

D|---------------------------------------------------|
A|--------------5-3----------------------------------|
F|------------------2------------------5-----5\------|
C|--0--0-0--0--0--------8--8-8--8------5-----5\------|
G|--0--0-0--0--0--------8--8-8--8------3-----3\------|
C|--0--0-0--0--0--------8--8-8--8--0-0---0-0---------|
                                   * *   * *
D|---------------------------------------------------------------|
A|---------------------------------------------------------------|
F|--------------------------7------------------------------------|
C|--0-0--0-0--0-0--0-0--0-0----8-8--8-8--8--8h10-10-10-10p8\\----|
G|--0-0--0-0--0-0--0-0--0-0----8-8--8-8--8--8h10-10-10-10p8\\----|
C|--0-0--0-0--0-0--0-0--0-0----8-8--8-8--8--8h10-10-10-10p8\\----|
    * *  * *  * *  * *  * *
Outro

D|----------------------------------------------------|
A|--------------5-3-----------------------------------|
F|------------------2------------------5-----5--7-----|
C|--0--0-0--0--0--------8--8-8--8------5-----5--7-----|
G|--0--0-0--0--0--------8--8-8--8------3-----3--5-----|
C|--0--0-0--0--0--------8--8-8--8--0-0---0-0----------|
                                   * *   * *

By: CellDwellin
Tap to rate this tab
 
# A B C D E F G H I J K L M N O P Q R S T U V W X Y Z