Song name
# A B C D E F G H I J K L M N O P Q R S T U V W X Y Z

Portraits Of Past - Something Less Than Intended tab

Here is the band's site:
http://www.portraitsofpast.com/
 http://www.myspace.com/portraitsofpast

Drop low E string -> D, then everything down half a step, its in Dflat minor / E major. 
are two guitars, but it's hard to make out what each is doing, so i did the best i could 
what i could hear.


-5---
-5---
-7---
-7--- let ring
-5---
-----


there are two melodies here but they're something like this:

-6-5------------------------|
-----6-----6----------------|
--------7-----7-------------|
----------------------------|
----------------------------|
----------------------------|

1:35 - theres powerchords on the bottom 3 strings and these octaves played above it 
not in this exact order:

-----------------------------|
-----------------------------|
---7---15--14---10-----------|
-----------------------------|
---5---13--12---8------------|
-----------------------------|

and then at some point:


------------------------------|
------------------------------|
---9---5-5-----7---5-5--------|
------------------------------|
---7---3-3-----9---3-3--------|
------------------------------|

at 2:08
-----------------------------------|
-----------------------------------|
-----------------------------------|
--0--7-8--0--12-10-----------------|
--0--7-8--0--12-10-----------------|
--0--7-8--0--12-10-----------------|


at 3:46:
------8--5----------8--5--------|
--7------------7----------------|
--------------------------------|
--------------------------------|
--------------------------------|
--------------------------------|
Tap to rate this tab
# A B C D E F G H I J K L M N O P Q R S T U V W X Y Z