Song name
# A B C D E F G H I J K L M N O P Q R S T U V W X Y Z

Portugal The Man - The Bottom tab

-------------------------------------------------------------------------------
			     The Bottom - Portugal the man
-------------------------------------------------------------------------------
Tabbed by: Trevor
Email:Peppers_4_ever62@hotmail.com
Note: this is my first tab and may be very in accurate.
Tuning: E standard
verse (intro has no guitar.)                                      b4 chorus
e|----------------------------------------------------l-------------------------|
B|----------------------------------------------------l-------------------------|
G|-----7h-9-9p7-4-7-4-2-4-4p2-0-2-2p0-----------------l---0-----2---------------|l
D|-2----------------------------------2----0--2-------l-------------------------|l
A|----------------------------------------------------l-------------------------|
E|----------------------------------------------------l-------------------------|
for the two 2's on the g you bend up gradually on the first and quickly bend up the down 
off on the second.

chorus!
e|---------------------------------------------------------------------------|
B|---------------------------------------------------------------------------|
G|--------9---7/9---7/9--2---------------------------------------------------|
D|-2-2-2--9---7/9---7/9--2-----------------2---------------------------------|
A|-2-2-2--7---5/7---5/7--0-0-0-0-0-2-0-----2---------------------------------|
E|-0-0-0-------------------------------3-3-0---------------------------------|
verse 2 (back guitar)
e|-12---keep--------------------------------------------------------------------|
B|-12-----doing-----------------------------------------------------------------|
G|-12-------that----------------------------------------------------------------|
D|------------------------------------------------------------------------------|
A|------------------------------------------------------------------------------|
E|------------------------------------------------------------------------------|
other guitar                                                                               2x
e|----------------------------------------------l-----------------------------|
B|--------------------------^-------^-----------l-----^-----------------------|
G|---/9-9-7-4-7-4-2-4-4-2-0-2-4-2-0-2-2br-0-----l-0---2-----------------------|
D|-2----------------------------------------2--l------------------------------|
A|---------------------------------------------l------------------------------|
E|---------------------------------------------l------------------------------|
Chorus is the same

interlude thing (not sure at all i just mess around with high distortion in that power chord.)
e|-----------------------------------------------------------------------------|
B|-----------------------------------------------------------------------------|
G|----0-----------0----2-------------------------------------------------------|l
D|--2---2-------2------2-------------------------------------------------------|
A|--2-----2---2--------0-------------------------------------------------------|
E|--0-------0------------------------------------------------------------------|

then Chorus again but i didnt get the last 20 seconds    sorry for not. hope its good otherwise.

| /  slide up
| \  slide down
| h  hammer-on
| p  pull-off
| ~  vibrato
| +  harmonic
| x  Mute note
l B  Bend
l R  back to normal from bend


trevor!
===============================================================================
Tap to rate this tab
 
# A B C D E F G H I J K L M N O P Q R S T U V W X Y Z