Song name
# A B C D E F G H I J K L M N O P Q R S T U V W X Y Z

Portugal The Man - Created tab

-------------------------------------------------------------------------------
			     CREATED - Portugal. the Man
-------------------------------------------------------------------------------
        
e|---------1-----------------1------------------6---------------------|
B|-----1-----1---1-------3-----3---3--------6-----6---6---------------|
G|---2---2-----2-------2---2-----2--------7---7-----7-----------------|
D|-3-----------------0------------------8-----------------------------|
A|--------------------------------------------------------------------|
E|--------------------------------------------------------------------|

e|-------------------------------10------------------8---------------6-----|
B|-----1--------5----------10-------10----10-----8-----8---8-----6-----6--6|
G|---2---2----6---6-----10----10-------10------9---9-----9-----7---7-----7-|
D|-3--------7--------12----------------------10--------------8-------------|
A|-------------------------------------------------------------------------|
E|-------------------------------------------------------------------------|

e|-1~----------------------------------------------------------------------|
B|-1~----------------------------------------------------------------------|
G|-2~----------------------------------------------------------------------|
D|-3~----------------------------------------------------------------------|
A|-------------------------------------------------------------------------|
E|-------------------------------------------------------------------------|

Tap to rate this tab
 
# A B C D E F G H I J K L M N O P Q R S T U V W X Y Z