Guitaretab - guitar tabs
Song name
# A B C D E F G H I J K L M N O P Q R S T U V W X Y Z

Portugal The Man - Tommy tab

-------------------------------------------------------------------------------
	         Tommy – Milburn
-------------------------------------------------------------------------------
Tabbed by: Ben Pattyson	

I think this is pretty much right except the solo is a bit off in the middle bit.
Open to corrections. Cheers.

Intro
                                  PM-----------------------
e|---------------------------------------------------------------|
B|---------------------------------------------------------------|
G|---------------------------------------------------------------|
D|-7------5-3-----5-10-----7-5----5-5-5-5-5-5-5-5-5-5-5-5-5-5-5--|
A|-7------5-3-----5-10-----7-5----5-5-5-5-5-5-5-5-5-5-5-5-5-5-5--|
E|-5------3-1-----3-8------5-3----3-3-3-3-3-3-3-3-3-3-3-3-3-3-3--|

Riff

e|-8--7-5-------------------------------------------------------------|
B|--------8-5--------------------5-8---5------------------------------|
G|------------7--7b9-5------5-7-----------7-5-4-----------------------|
D|----------------------5-7---------------------7-5-3-2---------------|
A|-------------------------------------------------------5-3-5-7-5-3--|
E|--------------------------------------------------------------------|

e|-----------------------------12-15---------12-12-------12-12------12-12--|
B|------------------8-10-13-15---------15b17-------15b17-------15b17-------|
G|------------5-7-9--------------------------------------------------------|
D|--------5-7--------------------------------------------------------------|
A|-3--5-7------------------------------------------------------------------|
E|-------------------------------------------------------------------------|

e|-------------------|
B|-15--13--12--------|
G|------------14-12--| x2
D|-------------------|
A|-------------------|
E|-------------------|

Verse (some PM)

e|-------------------------------------------------------------|
B|-------------------------------------------------------------|
G|-------------------------------------------------------------|
D|-7-7-7-7-7-7-7-7-7-7-7-7-7-5--3--3-3-3-3-3-3-3-3-3-3-3-5--10-|
A|-7-7-7-7-7-7-7-7-7-7-7-7-7-5--3--3-3-3-3-3-3-3-3-3-3-3-5--10-|
E|-5-5-5-5-5-5-5-5-5-5-5-5-5-3--1--1-1-1-1-1-1-1-1-1-1-1-3--8--|

e|--------------------------------------------------------------|
B|--------------------------------------------------------------|
G|--------------------------------------------------------------| repeat
D|-101010101010101010101010-7--5--5-5-5-5-5-5-5-5-5-5-5-5-5-5-5-|
A|-101010101010101010101010-7--5--5-5-5-5-5-5-5-5-5-5-5-5-5-5-5-|
E|-8-8-8-8-8-8-8-8-8-8-8-8--5--3--3-3-3-3-3-3-3-3-3-3-3-3-3-3-3-|

Chorus

e|----------------------------------------------------------------|
B|----------------------------------------------------------------|
G|----------------------------------------------------------------|
D|-10--5--3--5--10--5--3--7--10--5--3--5--10--7-3-5--3-3-3-3-3-3--|
A|-10--5--3--5--10--5--3--7--10--5--3--5--10--7-3-5--3-3-3-3-3-3--|
E|-8---3--1--3--8---3--1--5--8---3--1--3--8---5-1-3--1-1-1-1-1-1--|

Fill
[ Tab from: http://www.guitaretab.com/p/portugal-the-man/158584.html ]
e|------------------|
B|------------------|
G|-7h9p7-5-7-5------|
D|-------------5-7--|
A|------------------|
E|------------------|

Solo (not 100% right)

e|----------17-------17-------17--20b22-20-17-----------------------17-17--|
B|-20-20b22----20b22----20b22-----------------20-17-----------20b22--------|
G|--------------------------------------------------19-17-19---------------|
D|-------------------------------------------------------------------------|
A|-------------------------------------------------------------------------|
E|-------------------------------------------------------------------------|

e|-------17-17-------17--22-20-22-22b24--------20p17-------20p17-------20p17-|
B|-20b22-------20b22---------------------20p17-------20p17-------20p17-------|
G|---------------------------------------------------------------------------|
D|---------------------------------------------------------------------------|
A|---------------------------------------------------------------------------|
E|---------------------------------------------------------------------------|

e|-------20p17-------20p17-------------------------------------------------|
B|-20p17-------20p17--------------------------20-20b22-20-17---------------|
G|-------------------------19p17-19p17----17-----------------19-17----17---|
D|-------------------------------------19--------------------------19------|
A|-------------------------------------------------------------------------|
E|-------------------------------------------------------------------------|

Outro

e|------------------|
B|------------------|
G|-7h9p7-5-7-5------|
D|-------------5-7--|
A|------------------|
E|------------------|

e|----------------------------------|
B|----------------------------------|
G|-7h9p7-5-7-5---4-5-4-----5-4------|
D|-------------7-------5-7-----5-7--|
A|----------------------------------|
E|----------------------------------|

     ‘that boy’s in deep…’
   A5                              C5
e|-----------------------------------------------------------------------------|
B|-----------------------------------------------------------------------------|
G|-----5-------5-------5-------5---------9----------9----------9----------9----|
D|-7-7---7-7-7---7-7-7---7-7-7---7-10-10---10-10-10---10-10-10---10-10-10---10-|
A|-----------------------------------------------------------------------------|
E|-----------------------------------------------------------------------------|
   E5                                              A5
e|-----------------------------------------------------------------------------|
B|--------------------------------------------------13h15p13----13-------------|
G|-------12----------12----------12----------12--------------14----14-12-14-12-|
D|-14-14----14-14-14----14-14-14----14-14-14----14-----------------------------|
A|-----------------------------------------------------------------------------|
E|-----------------------------------------------------------------------------|
   G5
e|-------------------------|
B|-12h13p12----12----------|
G|----------14----14-12-14-| repeat
D|-------------------------|
A|-------------------------|
E|-------------------------|


| s  slide
| h  hammer-on
| p  pull-off
| b  bend
| PM Palm Muting
Related for Tommy tab
×
Tommy