Song name
# A B C D E F G H I J K L M N O P Q R S T U V W X Y Z

Portugal The Man - And I tab

6/8ths

"Some were reborn..."

Am|Am|Dm|Dm|G|G7|C|G/b|

"Now pick up and pack up the place you were pink...."

|--------------------------------------------------------------------------------|
|--------------------------------------------------------------------------------|
|--------------------------------------------------------------------------------|
|--------------------------------------------------------------------------------|
|-3-2---0----3-0-----3\5---3-(5)\7-5\7-5-3----------3----0--3-2------------------|
|-----3---0-3----0-3-----5------------------3-0-3-3---3---------3----------------|


"take from the air..."

Am|E|F|C|G/b|

solo over those chords^

|---------------------------------|
|---------------------------------|
|-------5-7-5-7-------------------|
|-7-5-7---------------------------|
|---------------------------------|
|---------------------------------|


Am|E|F|E|E|Am|G|Am
Tap to rate this tab
# A B C D E F G H I J K L M N O P Q R S T U V W X Y Z