Song name
# A B C D E F G H I J K L M N O P Q R S T U V W X Y Z

Portugal The Man - Hard Times Our Times tab

                         -Hard Times-

     |Em|
e---------------------------------------------------------------|
b-----------10b10-8b--------------------------------------------|
G----------------------9b--------7b7b7b-5-----------5-----------|
D--------------------------------------------7-7-5-7-----7-5----|
A---------------------------------------------------------------|
E---------------------------------------------------------------|
                                        ( x4)                 (x2)


Em|Em|C|C|
+Little fills
e--------------------------------|
b--------------------------------|
G--------------------------------|
D-------------5-7-7--------------|
A---7-7-5-7----------------------|
E--------------------------------|


   |C|x2       |Am|x2       |Am|
e-----------------------------------|
b-----------------------------------|
G-----------------------------------|
D-----------------------------------|
A-------3-2-----------3-2-----------|
E-----------------------------------|

Am|Am|C|C|


D|D|Am|Am|Cm|Cm


               -Our Times-
                       |Am|                 |G|G|
e---------------------------------------------------|
b---------------------------------------------------|
G---------0h2------------------0h2------------------|
D---0h2------------------0h2------------------------|
A---------------------------------------------------|
E---------------------------------------------------|

enjoy!
Tap to rate this tab
 
# A B C D E F G H I J K L M N O P Q R S T U V W X Y Z