Song name
# A B C D E F G H I J K L M N O P Q R S T U V W X Y Z

Portugal The Man - Mornings tab

-------------------------------------------------------------------------------
			     Mornings - Portugal. The Man
-------------------------------------------------------------------------------
Tabbed by: scootergomoo
Email: scootergomoo@yahoo.com

Tuning: Standard

e|----------------5------5/7-10-12--------------10-|
B|-5/7-5-5-3--5/7---7-5------------10~--10h12------|
G|-------------------------------------------------|
D|-------------------------------------------------|
A|-------------------------------------------------|
E|-------------------------------------------------|

e|----------------5----------------------------|
B|-5/7-5-5-3--5/7---7-5------------------------|
G|---------------------------------------------|
D|-----------------------2h4p2-------2/4-2-----|
A|----------------------------5-2-5--------5-2-|
E|---------------------------------------------|

e|---------------5-------5-------5-5/7-5---5/7~--10/12---10-|
B|---------5/7-5---5/7-5---5/7-5---------5------------------|
G|----------------------------------------------------------|
D|-2/4-2----------------------------------------------------|
A|-------5--------------------------------------------------|
E|----------------------------------------------------------|

e|-5/7-10/12-7--6--5--4--....-|
B|----------------------------|
G|----------------------------|
D|----------------------------|
A|----------------------------|
E|----------------------------|

.. I believe it then goes on to a G chord and so on so fourth.

This is my first ever submitted tab here. I believe it's pretty accurate.. Anyway, have fun.
Be sure to support this art. Buy the album when it comes out (7/21/2009)!

| /  slide up
| \  slide down
| h  hammer-on
| p  pull-off
| ~  vibrato
| +  harmonic
| x  Mute note
===============================================================================
Tap to rate this tab
# A B C D E F G H I J K L M N O P Q R S T U V W X Y Z